  0
SECTION
  2
HEADER
  9
$ACADVER
  1
AC1015
  9
$ACADMAINTVER
 70
    20
  9
$DWGCODEPAGE
  3
ANSI_1252
  9
$INSBASE
 10
0.0
 20
0.0
 30
0.0
  9
$EXTMIN
 10
10.90645511160061
 20
6.199648561470628
 30
0.0
  9
$EXTMAX
 10
45.88145511160059
 20
34.94983830319068
 30
0.0
  9
$LIMMIN
 10
0.0
 20
0.0
  9
$LIMMAX
 10
12.0
 20
9.0
  9
$ORTHOMODE
 70
     1
  9
$REGENMODE
 70
     1
  9
$FILLMODE
 70
     1
  9
$QTEXTMODE
 70
     0
  9
$MIRRTEXT
 70
     0
  9
$LTSCALE
 40
1.0
  9
$ATTMODE
 70
     1
  9
$TEXTSIZE
 40
0.2
  9
$TRACEWID
 40
0.05
  9
$TEXTSTYLE
  7
Standard
  9
$CLAYER
  8
0
  9
$CELTYPE
  6
ByLayer
  9
$CECOLOR
 62
   256
  9
$CELTSCALE
 40
1.0
  9
$DISPSILH
 70
     0
  9
$DIMSCALE
 40
1.0
  9
$DIMASZ
 40
0.35
  9
$DIMEXO
 40
0.1
  9
$DIMDLI
 40
20.0
  9
$DIMRND
 40
0.0
  9
$DIMDLE
 40
0.0
  9
$DIMEXE
 40
0.0999999999999996
  9
$DIMTP
 40
0.0
  9
$DIMTM
 40
0.0
  9
$DIMTXT
 40
0.15
  9
$DIMCEN
 40
2.0
  9
$DIMTSZ
 40
0.0
  9
$DIMTOL
 70
     0
  9
$DIMLIM
 70
     0
  9
$DIMTIH
 70
     1
  9
$DIMTOH
 70
     1
  9
$DIMSE1
 70
     0
  9
$DIMSE2
 70
     0
  9
$DIMTAD
 70
     1
  9
$DIMZIN
 70
     0
  9
$DIMBLK
  1

  9
$DIMASO
 70
     1
  9
$DIMSHO
 70
     1
  9
$DIMPOST
  1

  9
$DIMAPOST
  1
mm
  9
$DIMALT
 70
     1
  9
$DIMALTD
 70
     0
  9
$DIMALTF
 40
25.4
  9
$DIMLFAC
 40
1.0
  9
$DIMTOFL
 70
     0
  9
$DIMTVP
 40
0.0
  9
$DIMTIX
 70
     0
  9
$DIMSOXD
 70
     0
  9
$DIMSAH
 70
     0
  9
$DIMBLK1
  1

  9
$DIMBLK2
  1

  9
$DIMSTYLE
  2
COPY_OF_STANDARD
  9
$DIMCLRD
 70
     0
  9
$DIMCLRE
 70
     0
  9
$DIMCLRT
 70
     0
  9
$DIMTFAC
 40
1.0
  9
$DIMGAP
 40
0.05
  9
$DIMJUST
 70
     0
  9
$DIMSD1
 70
     0
  9
$DIMSD2
 70
     0
  9
$DIMTOLJ
 70
     1
  9
$DIMTZIN
 70
     0
  9
$DIMALTZ
 70
     0
  9
$DIMALTTZ
 70
     0
  9
$DIMUPT
 70
     0
  9
$DIMDEC
 70
     3
  9
$DIMTDEC
 70
     3
  9
$DIMALTU
 70
     2
  9
$DIMALTTD
 70
     0
  9
$DIMTXSTY
  7
Standard
  9
$DIMAUNIT
 70
     0
  9
$DIMADEC
 70
     0
  9
$DIMALTRND
 40
1.0
  9
$DIMAZIN
 70
     0
  9
$DIMDSEP
 70
    46
  9
$DIMATFIT
 70
     3
  9
$DIMFRAC
 70
     0
  9
$DIMLDRBLK
  1

  9
$DIMLUNIT
 70
     5
  9
$DIMLWD
 70
    -2
  9
$DIMLWE
 70
    -2
  9
$DIMTMOVE
 70
     0
  9
$LUNITS
 70
     2
  9
$LUPREC
 70
     4
  9
$SKETCHINC
 40
0.1
  9
$FILLETRAD
 40
0.75
  9
$AUNITS
 70
     0
  9
$AUPREC
 70
     0
  9
$MENU
  1
.
  9
$ELEVATION
 40
0.0
  9
$PELEVATION
 40
0.0
  9
$THICKNESS
 40
0.0
  9
$LIMCHECK
 70
     0
  9
$CHAMFERA
 40
0.0
  9
$CHAMFERB
 40
0.0
  9
$CHAMFERC
 40
0.0
  9
$CHAMFERD
 40
0.0
  9
$SKPOLY
 70
     0
  9
$TDCREATE
 40
2454207.379201667
  9
$TDUCREATE
 40
2454207.670868334
  9
$TDUPDATE
 40
2454972.641986493
  9
$TDUUPDATE
 40
2454972.933653159
  9
$TDINDWG
 40
0.3794630324
  9
$TDUSRTIMER
 40
0.3794630324
  9
$USRTIMER
 70
     1
  9
$ANGBASE
 50
0.0
  9
$ANGDIR
 70
     0
  9
$PDMODE
 70
     0
  9
$PDSIZE
 40
0.0
  9
$PLINEWID
 40
0.0
  9
$SPLFRAME
 70
     0
  9
$SPLINETYPE
 70
     6
  9
$SPLINESEGS
 70
     8
  9
$HANDSEED
  5
13AF
  9
$SURFTAB1
 70
     6
  9
$SURFTAB2
 70
     6
  9
$SURFTYPE
 70
     6
  9
$SURFU
 70
     6
  9
$SURFV
 70
     6
  9
$UCSBASE
  2

  9
$UCSNAME
  2

  9
$UCSORG
 10
0.0
 20
0.0
 30
0.0
  9
$UCSXDIR
 10
1.0
 20
0.0
 30
0.0
  9
$UCSYDIR
 10
0.0
 20
1.0
 30
0.0
  9
$UCSORTHOREF
  2

  9
$UCSORTHOVIEW
 70
     0
  9
$UCSORGTOP
 10
0.0
 20
0.0
 30
0.0
  9
$UCSORGBOTTOM
 10
0.0
 20
0.0
 30
0.0
  9
$UCSORGLEFT
 10
0.0
 20
0.0
 30
0.0
  9
$UCSORGRIGHT
 10
0.0
 20
0.0
 30
0.0
  9
$UCSORGFRONT
 10
0.0
 20
0.0
 30
0.0
  9
$UCSORGBACK
 10
0.0
 20
0.0
 30
0.0
  9
$PUCSBASE
  2

  9
$PUCSNAME
  2

  9
$PUCSORG
 10
0.0
 20
0.0
 30
0.0
  9
$PUCSXDIR
 10
1.0
 20
0.0
 30
0.0
  9
$PUCSYDIR
 10
0.0
 20
1.0
 30
0.0
  9
$PUCSORTHOREF
  2

  9
$PUCSORTHOVIEW
 70
     0
  9
$PUCSORGTOP
 10
0.0
 20
0.0
 30
0.0
  9
$PUCSORGBOTTOM
 10
0.0
 20
0.0
 30
0.0
  9
$PUCSORGLEFT
 10
0.0
 20
0.0
 30
0.0
  9
$PUCSORGRIGHT
 10
0.0
 20
0.0
 30
0.0
  9
$PUCSORGFRONT
 10
0.0
 20
0.0
 30
0.0
  9
$PUCSORGBACK
 10
0.0
 20
0.0
 30
0.0
  9
$USERI1
 70
     0
  9
$USERI2
 70
     0
  9
$USERI3
 70
     0
  9
$USERI4
 70
     0
  9
$USERI5
 70
     0
  9
$USERR1
 40
0.0
  9
$USERR2
 40
0.0
  9
$USERR3
 40
0.0
  9
$USERR4
 40
0.0
  9
$USERR5
 40
0.0
  9
$WORLDVIEW
 70
     1
  9
$SHADEDGE
 70
     3
  9
$SHADEDIF
 70
    70
  9
$TILEMODE
 70
     1
  9
$MAXACTVP
 70
    64
  9
$PINSBASE
 10
0.0
 20
0.0
 30
0.0
  9
$PLIMCHECK
 70
     0
  9
$PEXTMIN
 10
1.049999952316284
 20
0.7999999523162842
 30
0.0
  9
$PEXTMAX
 10
9.449999570846555
 20
7.199999570846556
 30
0.0
  9
$PLIMMIN
 10
-0.2500002402958907
 20
-0.2499999962453767
  9
$PLIMMAX
 10
10.74999951940821
 20
8.249999763458731
  9
$UNITMODE
 70
     0
  9
$VISRETAIN
 70
     1
  9
$PLINEGEN
 70
     0
  9
$PSLTSCALE
 70
     1
  9
$TREEDEPTH
 70
  3020
  9
$CMLSTYLE
  2
Standard
  9
$CMLJUST
 70
     0
  9
$CMLSCALE
 40
1.0
  9
$PROXYGRAPHICS
 70
     1
  9
$MEASUREMENT
 70
     0
  9
$CELWEIGHT
370
    -1
  9
$ENDCAPS
280
     0
  9
$JOINSTYLE
280
     0
  9
$LWDISPLAY
290
     0
  9
$INSUNITS
 70
     4
  9
$HYPERLINKBASE
  1

  9
$STYLESHEET
  1

  9
$XEDIT
290
     1
  9
$CEPSNTYPE
380
     0
  9
$PSTYLEMODE
290
     1
  9
$FINGERPRINTGUID
  2
{9A2C4EDF-0675-4547-8DE0-5584600C8A7C}
  9
$VERSIONGUID
  2
{F7212292-68FD-4EC6-9F0D-D503392EA8F5}
  9
$EXTNAMES
290
     1
  9
$PSVPSCALE
 40
0.0
  9
$OLESTARTUP
290
     0
  0
ENDSEC
  0
SECTION
  2
CLASSES
  0
CLASS
  1
ACDBDICTIONARYWDFLT
  2
AcDbDictionaryWithDefault
  3
ObjectDBX Classes
 90
        0
280
     0
281
     0
  0
CLASS
  1
ACDBPLACEHOLDER
  2
AcDbPlaceHolder
  3
ObjectDBX Classes
 90
        0
280
     0
281
     0
  0
CLASS
  1
LAYOUT
  2
AcDbLayout
  3
ObjectDBX Classes
 90
        0
280
     0
281
     0
  0
CLASS
  1
DICTIONARYVAR
  2
AcDbDictionaryVar
  3
ObjectDBX Classes
 90
        0
280
     0
281
     0
  0
CLASS
  1
TABLESTYLE
  2
AcDbTableStyle
  3
ObjectDBX Classes
 90
     4095
280
     0
281
     0
  0
CLASS
  1
DBCOLOR
  2
AcDbColor
  3
ObjectDBX Classes
 90
        0
280
     0
281
     0
  0
CLASS
  1
SORTENTSTABLE
  2
AcDbSortentsTable
  3
ObjectDBX Classes
 90
        0
280
     0
281
     0
  0
CLASS
  1
DIMASSOC
  2
AcDbDimAssoc
  3
"AcDbDimAssoc|Product Desc:     AcDim ARX App For Dimension|Company:          Autodesk, Inc.|WEB Address:      www.autodesk.com"
 90
    32768
280
     0
281
     0
  0
CLASS
  1
MATERIAL
  2
AcDbMaterial
  3
ObjectDBX Classes
 90
     1024
280
     0
281
     0
  0
CLASS
  1
VISUALSTYLE
  2
AcDbVisualStyle
  3
ObjectDBX Classes
 90
     4095
280
     0
281
     0
  0
ENDSEC
  0
SECTION
  2
TABLES
  0
TABLE
  2
VPORT
  5
8
330
0
100
AcDbSymbolTable
 70
     1
  0
VPORT
  5
137E
330
8
100
AcDbSymbolTableRecord
100
AcDbViewportTableRecord
  2
*Active
 70
     0
 10
0.0
 20
0.0
 11
1.0
 21
1.0
 12
28.39447118886321
 22
23.93292823784957
 13
0.0
 23
0.0
 14
0.5
 24
0.5
 15
0.5
 25
0.5
 16
0.0
 26
0.0
 36
1.0
 17
0.0
 27
0.0
 37
0.0
 40
35.793221321153
 41
1.373809523809523
 42
50.0
 43
0.0
 44
0.0
 50
0.0
 51
0.0
 71
     0
 72
 20000
 73
     1
 74
     3
 75
     0
 76
     0
 77
     0
 78
     0
281
     0
 65
     1
110
0.0
120
0.0
130
0.0
111
1.0
121
0.0
131
0.0
112
0.0
122
1.0
132
0.0
 79
     0
146
0.0
  0
ENDTAB
  0
TABLE
  2
LTYPE
  5
5
330
0
100
AcDbSymbolTable
 70
     4
  0
LTYPE
  5
14
330
5
100
AcDbSymbolTableRecord
100
AcDbLinetypeTableRecord
  2
ByBlock
 70
     0
  3

 72
    65
 73
     0
 40
0.0
  0
LTYPE
  5
15
330
5
100
AcDbSymbolTableRecord
100
AcDbLinetypeTableRecord
  2
ByLayer
 70
     0
  3

 72
    65
 73
     0
 40
0.0
  0
LTYPE
  5
16
330
5
100
AcDbSymbolTableRecord
100
AcDbLinetypeTableRecord
  2
Continuous
 70
     0
  3
Solid line
 72
    65
 73
     0
 40
0.0
  0
LTYPE
  5
B78
330
5
100
AcDbSymbolTableRecord
100
AcDbLinetypeTableRecord
  2
DASHED
 70
     0
  3
-- -- -- -- -- -- -- -- -- --
 72
    65
 73
     2
 40
24.0
 49
16.0
 74
     0
 49
-8.0
 74
     0
  0
LTYPE
  5
E1B
330
5
100
AcDbSymbolTableRecord
100
AcDbLinetypeTableRecord
  2
ACAD_ISO14W100
 70
     0
  3
ISO dash triple-dot __ . . . __ . . . __ . . . 
 72
    65
 73
     8
 40
24.0
 49
12.0
 74
     0
 49
-3.0
 74
     0
 49
0.0
 74
     0
 49
-3.0
 74
     0
 49
0.0
 74
     0
 49
-3.0
 74
     0
 49
0.0
 74
     0
 49
-3.0
 74
     0
  0
LTYPE
  5
1088
330
5
100
AcDbSymbolTableRecord
100
AcDbLinetypeTableRecord
  2
AM_ISO02W050
 70
     0
  3
__ __ __ __ __ __ __ __ __ __ __ __ __ __ __
 72
    65
 73
     2
 40
7.5
 49
6.0
 74
     0
 49
-1.5
 74
     0
  0
ENDTAB
  0
TABLE
  2
LAYER
  5
2
102
{ACAD_XDICTIONARY
360
97
102
}
330
0
100
AcDbSymbolTable
 70
     6
  0
LAYER
  5
10
330
2
100
AcDbSymbolTableRecord
100
AcDbLayerTableRecord
  2
0
 70
     0
 62
     7
  6
Continuous
370
    -3
390
F
  0
LAYER
  5
D5
330
2
100
AcDbSymbolTableRecord
100
AcDbLayerTableRecord
  2
Defpoints
 70
     0
 62
     7
  6
Continuous
290
     0
370
    -3
390
F
  0
LAYER
  5
D8B
330
2
100
AcDbSymbolTableRecord
100
AcDbLayerTableRecord
  2
LAYER_1
 70
     0
 62
   160
  6
Continuous
370
    -3
390
F
  0
LAYER
  5
E1C
330
2
100
AcDbSymbolTableRecord
100
AcDbLayerTableRecord
  2
biaozhu
 70
     0
 62
     3
  6
Continuous
370
     5
390
F
  0
LAYER
  5
E1F
330
2
100
AcDbSymbolTableRecord
100
AcDbLayerTableRecord
  2
EbLayer9
 70
     0
 62
   142
  6
Continuous
370
    -3
390
F
  0
LAYER
  5
134D
330
2
100
AcDbSymbolTableRecord
100
AcDbLayerTableRecord
  2
FORMAT
 70
     0
 62
     7
  6
Continuous
370
    -3
390
F
  0
ENDTAB
  0
TABLE
  2
STYLE
  5
3
330
0
100
AcDbSymbolTable
 70
     5
  0
STYLE
  5
11
330
3
100
AcDbSymbolTableRecord
100
AcDbTextStyleTableRecord
  2
Standard
 70
     0
 40
0.0
 41
1.0
 50
0.0
 71
     0
 42
0.2
  3
txt
  4

  0
STYLE
  5
D8
330
3
100
AcDbSymbolTableRecord
100
AcDbTextStyleTableRecord
  2
BLACK
 70
     0
 40
0.4
 41
1.0
 50
0.0
 71
     0
 42
0.4
  3
ARIAL.TTF
  4

1001
ACAD
1000
Arial
1071
       34
  0
STYLE
  5
D9
330
3
100
AcDbSymbolTableRecord
100
AcDbTextStyleTableRecord
  2
Arial Reguler
 70
     0
 40
0.0
 41
1.0
 50
0.0
 71
     0
 42
3.0
  3
ARIAL.TTF
  4

1001
ACAD
1000
Arial
1071
       34
  0
STYLE
  5
134E
330
3
100
AcDbSymbolTableRecord
100
AcDbTextStyleTableRecord
  2
SLDTEXTSTYLE1
 70
     0
 40
0.0
 41
0.605
 50
0.0
 71
     0
 42
0.2
  3
TXT
  4

  0
STYLE
  5
134F
330
3
100
AcDbSymbolTableRecord
100
AcDbTextStyleTableRecord
  2
SLDTEXTSTYLE2
 70
     0
 40
0.0
 41
0.605
 50
0.0
 71
     0
 42
0.2
  3
TXT
  4

  0
ENDTAB
  0
TABLE
  2
VIEW
  5
6
330
0
100
AcDbSymbolTable
 70
     0
  0
ENDTAB
  0
TABLE
  2
UCS
  5
7
330
0
100
AcDbSymbolTable
 70
     0
  0
ENDTAB
  0
TABLE
  2
APPID
  5
9
330
0
100
AcDbSymbolTable
 70
    14
  0
APPID
  5
12
330
9
100
AcDbSymbolTableRecord
100
AcDbRegAppTableRecord
  2
ACAD
 70
     0
  0
APPID
  5
91
330
9
100
AcDbSymbolTableRecord
100
AcDbRegAppTableRecord
  2
ACAD_PSEXT
 70
     0
  0
APPID
  5
92
330
9
100
AcDbSymbolTableRecord
100
AcDbRegAppTableRecord
  2
ACAD_DSTYLE_DIMEXT_LENGTH
 70
     0
  0
APPID
  5
93
330
9
100
AcDbSymbolTableRecord
100
AcDbRegAppTableRecord
  2
ACAD_DSTYLE_DIMEXT_ENABLED
 70
     0
  0
APPID
  5
94
330
9
100
AcDbSymbolTableRecord
100
AcDbRegAppTableRecord
  2
ACAD_DSTYLE_DIMJOGGED_JOGANGLE_SYMBOL
 70
     0
  0
APPID
  5
95
330
9
100
AcDbSymbolTableRecord
100
AcDbRegAppTableRecord
  2
ACAD_DSTYLE_DIMARC_LENGTH_SYMBOL
 70
     0
  0
APPID
  5
C1
330
9
100
AcDbSymbolTableRecord
100
AcDbRegAppTableRecord
  2
ACAD_EXEMPT_FROM_CAD_STANDARDS
 70
     0
  0
APPID
  5
539
330
9
100
AcDbSymbolTableRecord
100
AcDbRegAppTableRecord
  2
ACAD_DSTYLE_DIMTEXT_FILL
 70
     0
  0
APPID
  5
53C
330
9
100
AcDbSymbolTableRecord
100
AcDbRegAppTableRecord
  2
ACAD_DSTYLE_DIM_LINETYPE
 70
     0
  0
APPID
  5
53D
330
9
100
AcDbSymbolTableRecord
100
AcDbRegAppTableRecord
  2
ACAD_DSTYLE_DIM_EXT1_LINETYPE
 70
     0
  0
APPID
  5
53E
330
9
100
AcDbSymbolTableRecord
100
AcDbRegAppTableRecord
  2
ACAD_DSTYLE_DIM_EXT2_LINETYPE
 70
     0
  0
APPID
  5
C74
330
9
100
AcDbSymbolTableRecord
100
AcDbRegAppTableRecord
  2
DCO15
 70
     0
  0
APPID
  5
E22
330
9
100
AcDbSymbolTableRecord
100
AcDbRegAppTableRecord
  2
AcDbDynamicBlockGUID
 70
     0
  0
APPID
  5
E23
330
9
100
AcDbSymbolTableRecord
100
AcDbRegAppTableRecord
  2
AcDbBlockRepETag
 70
     0
  0
ENDTAB
  0
TABLE
  2
DIMSTYLE
  5
A
330
0
100
AcDbSymbolTable
 70
     2
100
AcDbDimStyleTable
 71
     2
340
90
340
27
  0
DIMSTYLE
105
27
330
A
100
AcDbSymbolTableRecord
100
AcDbDimStyleTableRecord
  2
Standard
 70
     0
340
11
  0
DIMSTYLE
105
90
102
{ACAD_REACTORS
330
AAC
102
}
330
A
100
AcDbSymbolTableRecord
100
AcDbDimStyleTableRecord
  2
COPY_OF_STANDARD
 70
     0
  4
mm
 41
0.35
 42
0.1
 43
20.0
 44
0.0999999999999996
 77
     1
140
0.15
141
2.0
147
0.05
148
1.0
170
     1
171
     0
271
     3
272
     3
274
     0
277
     5
340
11
1001
ACAD_DSTYLE_DIMJOGGED_JOGANGLE_SYMBOL
1070
   384
1040
0.7853981633974483
  0
ENDTAB
  0
TABLE
  2
BLOCK_RECORD
  5
1
330
0
100
AcDbSymbolTable
 70
     7
  0
BLOCK_RECORD
  5
1F
102
{ACAD_XDICTIONARY
360
298
102
}
330
1
100
AcDbSymbolTableRecord
100
AcDbBlockTableRecord
  2
*Model_Space
340
22
  0
BLOCK_RECORD
  5
58
330
1
100
AcDbSymbolTableRecord
100
AcDbBlockTableRecord
  2
*Paper_Space
340
59
  0
BLOCK_RECORD
  5
5D
330
1
100
AcDbSymbolTableRecord
100
AcDbBlockTableRecord
  2
*Paper_Space0
340
5E
  0
BLOCK_RECORD
  5
D5D
330
1
100
AcDbSymbolTableRecord
100
AcDbBlockTableRecord
  2
AI9-BLK1
340
0
102
{BLKREFS
331
D89
102
}
  0
BLOCK_RECORD
  5
D87
330
1
100
AcDbSymbolTableRecord
100
AcDbBlockTableRecord
  2
A$C03B71B66
340
0
102
{BLKREFS
331
133D
102
}
  0
BLOCK_RECORD
  5
DB7
102
{ACAD_XDICTIONARY
360
DB8
102
}
330
1
100
AcDbSymbolTableRecord
100
AcDbBlockTableRecord
  2
d
340
0
310
2800000020000000200000000100080000000000000400000000000000000000000000000000000000000000000080000080000000808000800000008000800080800000C0C0C000C0DCC000F0CAA6000020400000206000002080000020A0000020C0000020E00000400000004020000040400000406000004080000040A0
310
000040C0000040E00000600000006020000060400000606000006080000060A0000060C0000060E00000800000008020000080400000806000008080000080A0000080C0000080E00000A0000000A0200000A0400000A0600000A0800000A0A00000A0C00000A0E00000C0000000C0200000C0400000C0600000C0800000C0
310
A00000C0C00000C0E00000E0000000E0200000E0400000E0600000E0800000E0A00000E0C00000E0E00040000000400020004000400040006000400080004000A0004000C0004000E00040200000402020004020400040206000402080004020A0004020C0004020E000404000004040200040404000404060004040800040
310
40A0004040C0004040E00040600000406020004060400040606000406080004060A0004060C0004060E00040800000408020004080400040806000408080004080A0004080C0004080E00040A0000040A0200040A0400040A0600040A0800040A0A00040A0C00040A0E00040C0000040C0200040C0400040C0600040C08000
310
40C0A00040C0C00040C0E00040E0000040E0200040E0400040E0600040E0800040E0A00040E0C00040E0E00080000000800020008000400080006000800080008000A0008000C0008000E00080200000802020008020400080206000802080008020A0008020C0008020E00080400000804020008040400080406000804080
310
008040A0008040C0008040E00080600000806020008060400080606000806080008060A0008060C0008060E00080800000808020008080400080806000808080008080A0008080C0008080E00080A0000080A0200080A0400080A0600080A0800080A0A00080A0C00080A0E00080C0000080C0200080C0400080C0600080C0
310
800080C0A00080C0C00080C0E00080E0000080E0200080E0400080E0600080E0800080E0A00080E0C00080E0E000C0000000C0002000C0004000C0006000C0008000C000A000C000C000C000E000C0200000C0202000C0204000C0206000C0208000C020A000C020C000C020E000C0400000C0402000C0404000C0406000C0
310
408000C040A000C040C000C040E000C0600000C0602000C0604000C0606000C0608000C060A000C060C000C060E000C0800000C0802000C0804000C0806000C0808000C080A000C080C000C080E000C0A00000C0A02000C0A04000C0A06000C0A08000C0A0A000C0A0C000C0A0E000C0C00000C0C02000C0C04000C0C06000
310
C0C08000C0C0A000F0FBFF00A4A0A000808080000000FF0000FF000000FFFF00FF000000FF00FF00FFFF0000FFFFFF0000000000000000000000000000000000000000000000000000000000000000000000000000000000000000000000000000000000000000000000000000000000000000000000000000000000000000
310
00000000000000000000000000000000000000000000000000000000000000000000000000000000000000000000000000000000000000000000000000000000000000000000000000000000000000000000000000000000000000000000000000000000000000000000000000000000000000000000000000000000000000
310
00000000000000000000000000000000000000000000000000000000000000000000000000000000000000000000000000000000000000000000000000000000000000000000000000000000000000000000000000000000000000000000000000000000000000000000000000000000000000000000000000000000000000
310
0000000000000000000000000000000000000000000000000000000000000000000000000000000000000000000000000000000000000000000000000000000000000000000000000000000000000000000000000000FFFFFFFF0000FFFFFFFFFF0000FFFFFFFF0000FFFFFFFFFF00FFFFFF0000000000FFFF0000FF00FF00
310
FF00FF0000FFFF0000FF00FF00FF00FFFFFF000000000000FFFF0000FFFF0000FF00FF0000FFFF0000FF00FF0000FFFF0000000000FFFF00FFFF00FFFFFF0000FFFFFFFF00FFFF00FFFF00FF0000FFFF0000000000FFFF00FFFFFFFFFF00FF00FF00FFFF00FFFF00FFFF00FF00FF00FF0000000000FFFFFFFFFFFFFF00FFFF
310
FFFFFF00FFFFFFFFFFFF00FFFFFFFFFF000000000000000000000000000000000000000000000000000000000000000000000000000000000000000000000000000000000000000000000000000000000000000000000000000000000000000000000000000000000000000000000000000000000000000000000000000000
310
00000000000000000000000000000000000000000000000000000000000000000000000000000000000000000000000000000000000000000000000000000000000000000000000000000000000000000000000000000000000000000000000000000000000000000000000000000000000000000000000000000000000000
310
00000000000000000000000000000000000000000000000000000000000000000000000000000000000000000000000000000000000000000000000000000000000000000000000000000000000000000000000000000000000000000000000000000000000000000000000000000000000000000000000000000000000000
310
0000000000000000000000000000000000000000000000000000000000000000000000000000000000000000000000000000000000000000
102
{BLKREFS
331
E35
102
}
1001
AcDbDynamicBlockGUID
1000
{7DEC9585-B128-4802-87F9-2E8CA732FDE9}
1001
AcDbBlockRepETag
1070
     1
1071
       96
1001
ACAD
1000
DesignCenter Data
1002
{
1070
     1
1070
     4
1002
}
  0
BLOCK_RECORD
  5
E33
102
{ACAD_XDICTIONARY
360
E37
102
}
330
1
100
AcDbSymbolTableRecord
100
AcDbBlockTableRecord
  2
A$C07477C80
340
0
102
{BLKREFS
331
1372
102
}
1001
ACAD
1000
DesignCenter Data
1002
{
1070
     1
1070
     4
1002
}
  0
BLOCK_RECORD
  5
1339
102
{ACAD_XDICTIONARY
360
133A
102
}
330
1
100
AcDbSymbolTableRecord
100
AcDbBlockTableRecord
  2
A$C1A094D26
340
0
102
{BLKREFS
331
136E
102
}
1001
ACAD
1000
DesignCenter Data
1002
{
1070
     1
1070
     4
1002
}
  0
BLOCK_RECORD
  5
133F
102
{ACAD_XDICTIONARY
360
1340
102
}
330
1
100
AcDbSymbolTableRecord
100
AcDbBlockTableRecord
  2
A$C032810D5
340
0
102
{BLKREFS
331
136F
102
}
1001
ACAD
1000
DesignCenter Data
1002
{
1070
     1
1070
     4
1002
}
  0
ENDTAB
  0
ENDSEC
  0
SECTION
  2
BLOCKS
  0
BLOCK
  5
20
330
1F
100
AcDbEntity
  8
0
100
AcDbBlockBegin
  2
*Model_Space
 70
     0
 10
0.0
 20
0.0
 30
0.0
  3
*Model_Space
  1

  0
ENDBLK
  5
21
330
1F
100
AcDbEntity
  8
0
100
AcDbBlockEnd
  0
BLOCK
  5
5A
330
58
100
AcDbEntity
 67
     1
  8
0
100
AcDbBlockBegin
  2
*Paper_Space
 70
     0
 10
0.0
 20
0.0
 30
0.0
  3
*Paper_Space
  1

  0
ENDBLK
  5
5B
330
58
100
AcDbEntity
 67
     1
  8
0
100
AcDbBlockEnd
  0
BLOCK
  5
5F
330
5D
100
AcDbEntity
 67
     1
  8
0
100
AcDbBlockBegin
  2
*Paper_Space0
 70
     0
 10
0.0
 20
0.0
 30
0.0
  3
*Paper_Space0
  1

  0
ENDBLK
  5
60
330
5D
100
AcDbEntity
 67
     1
  8
0
100
AcDbBlockEnd
  0
BLOCK
  5
D5E
330
D5D
100
AcDbEntity
  8
LAYER_1
 62
     7
100
AcDbBlockBegin
  2
AI9-BLK1
 70
     0
 10
0.0
 20
0.0
 30
0.0
  3
AI9-BLK1
  1

  0
POLYLINE
  5
D5F
330
D5D
100
AcDbEntity
  8
LAYER_1
 62
     7
100
AcDb2dPolyline
 66
     1
 10
0.0
 20
0.0
 30
0.0
 70
     1
  0
VERTEX
  5
D60
330
D5F
100
AcDbEntity
  8
LAYER_1
 62
     7
100
AcDbVertex
100
AcDb2dVertex
 10
-11.42247246636284
 20
1.897041829427083
 30
0.0
  0
VERTEX
  5
D61
330
D5F
100
AcDbEntity
  8
LAYER_1
 62
     7
100
AcDbVertex
100
AcDb2dVertex
 10
10.11195814344618
 20
1.897041829427083
 30
0.0
  0
VERTEX
  5
D62
330
D5F
100
AcDbEntity
  8
LAYER_1
 62
     7
100
AcDbVertex
100
AcDb2dVertex
 10
10.11195814344618
 20
-4.642438422309027
 30
0.0
  0
VERTEX
  5
D63
330
D5F
100
AcDbEntity
  8
LAYER_1
 62
     7
100
AcDbVertex
100
AcDb2dVertex
 10
-11.42247246636284
 20
-4.642438422309027
 30
0.0
  0
SEQEND
  5
D64
330
D5F
100
AcDbEntity
  8
LAYER_1
 62
     7
  0
POLYLINE
  5
D65
330
D5D
100
AcDbEntity
  8
LAYER_1
 62
   250
100
AcDb2dPolyline
 66
     1
 10
0.0
 20
0.0
 30
0.0
 70
     1
  0
VERTEX
  5
D66
330
D65
100
AcDbEntity
  8
LAYER_1
 62
   250
100
AcDbVertex
100
AcDb2dVertex
 10
-11.42247246636284
 20
1.897041829427083
 30
0.0
  0
VERTEX
  5
D67
330
D65
100
AcDbEntity
  8
LAYER_1
 62
   250
100
AcDbVertex
100
AcDb2dVertex
 10
10.11195814344618
 20
1.897041829427083
 30
0.0
  0
VERTEX
  5
D68
330
D65
100
AcDbEntity
  8
LAYER_1
 62
   250
100
AcDbVertex
100
AcDb2dVertex
 10
10.11195814344618
 20
-4.642438422309027
 30
0.0
  0
VERTEX
  5
D69
330
D65
100
AcDbEntity
  8
LAYER_1
 62
   250
100
AcDbVertex
100
AcDb2dVertex
 10
-11.42247246636284
 20
-4.642438422309027
 30
0.0
  0
SEQEND
  5
D6A
330
D65
100
AcDbEntity
  8
LAYER_1
 62
   250
  0
LINE
  5
D6B
330
D5D
100
AcDbEntity
  8
LAYER_1
 62
   250
100
AcDbLine
 10
-4.145741780598958
 20
1.897041829427083
 30
0.0
 11
-4.145741780598958
 21
-4.642438422309027
 31
0.0
  0
SPLINE
  5
D6C
330
D5D
100
AcDbEntity
  8
LAYER_1
 62
     7
100
AcDbSpline
210
0.0
220
0.0
230
1.0
 70
    11
 71
     3
 72
    41
 73
    37
 74
     0
 42
0.0000000001
 43
0.0000000001
 40
0.0
 40
0.0
 40
0.0
 40
0.0
 40
1.0
 40
1.0
 40
1.0
 40
2.0
 40
2.0
 40
2.0
 40
3.0
 40
3.0
 40
3.0
 40
4.0
 40
4.0
 40
4.0
 40
5.0
 40
5.0
 40
5.0
 40
6.0
 40
6.0
 40
6.0
 40
7.0
 40
7.0
 40
7.0
 40
8.0
 40
8.0
 40
8.0
 40
9.0
 40
9.0
 40
9.0
 40
10.0
 40
10.0
 40
10.0
 40
11.0
 40
11.0
 40
11.0
 40
12.0
 40
12.0
 40
12.0
 40
12.0
 10
-7.692123074001735
 20
4.723398166232638
 30
0.0
 10
-7.514356146918402
 20
3.86522488064236
 30
0.0
 10
-7.164334445529513
 20
3.348805067274305
 30
0.0
 10
-6.778483751085068
 20
2.719730631510416
 30
0.0
 10
-6.573156060112846
 20
2.385556369357638
 30
0.0
 10
-6.268609619140624
 20
2.018998209635416
 30
0.0
 10
-6.022629801432291
 20
1.717896864149305
 30
0.0
 10
-5.548584662543402
 20
1.137053765190972
 30
0.0
 10
-5.086252848307291
 20
0.3577731662326389
 30
0.0
 10
-4.882303195529513
 20
-0.2719902886284722
 30
0.0
 10
-4.767237006293401
 20
-0.6375149197048611
 30
0.0
 10
-4.734164089626736
 20
-1.134986707899305
 30
0.0
 10
-4.750011528862846
 20
-1.318610297309027
 30
0.0
 10
-4.870589870876735
 20
-2.660474989149305
 30
0.0
 10
-5.549962700737847
 20
-3.646461317274305
 30
0.0
 10
-6.499431016710069
 20
-3.957897949218749
 30
0.0
 10
-6.76952650282118
 20
-4.047125922309027
 30
0.0
 10
-7.205675591362846
 20
-4.199054633246527
 30
0.0
 10
-7.68454386393229
 20
-4.167704264322916
 30
0.0
 10
-8.159967041015624
 20
-4.232127549913194
 30
0.0
 10
-8.54650675455729
 20
-4.124640570746527
 30
0.0
 10
-8.822114393446179
 20
-4.054705132378471
 30
0.0
 10
-9.791564263237846
 20
-3.809758843315971
 30
0.0
 10
-10.51227823893229
 20
-2.881650119357638
 30
0.0
 10
-10.72587415907118
 20
-1.551498752170138
 30
0.0
 10
-10.75481296115451
 20
-1.369942220052083
 30
0.0
 10
-10.71691691080729
 20
-0.8345743815104166
 30
0.0
 10
-10.6273444281684
 20
-0.4614705403645833
 30
0.0
 10
-10.46818101671007
 20
0.1806952582465278
 30
0.0
 10
-10.25803019205729
 20
0.6564629448784722
 30
0.0
 10
-9.73093058268229
 20
1.295872667100694
 30
0.0
 10
-9.483572726779513
 20
1.595940483940972
 30
0.0
 10
-9.031576199001735
 20
2.036223687065972
 30
0.0
 10
-8.782151285807291
 20
2.403470865885416
 30
0.0
 10
-8.36667277018229
 20
3.013252766927083
 30
0.0
 10
-7.809945339626735
 20
3.855234103732638
 30
0.0
 10
-7.692123074001735
 20
4.723398166232638
 30
0.0
  0
HATCH
  5
D6D
330
D5D
100
AcDbEntity
  8
LAYER_1
 62
   250
100
AcDbHatch
 10
0.0
 20
0.0
 30
0.0
210
0.0
220
0.0
230
1.0
  2
SOLID
 70
     1
 71
     0
 91
        1
 92
        1
 93
        1
 72
     4
 94
        3
 73
     0
 74
     0
 95
       32
 96
       28
 40
0.0
 40
0.0
 40
0.0
 40
0.0
 40
1.0
 40
1.0
 40
1.0
 40
2.0
 40
2.0
 40
2.0
 40
3.0
 40
3.0
 40
3.0
 40
4.0
 40
4.0
 40
4.0
 40
5.0
 40
5.0
 40
5.0
 40
6.0
 40
6.0
 40
6.0
 40
7.0
 40
7.0
 40
7.0
 40
8.0
 40
8.0
 40
8.0
 40
9.0
 40
9.0
 40
9.0
 40
9.0
 10
-7.687299940321179
 20
4.818827311197916
 10
-7.687299940321179
 20
4.818827311197916
 10
-7.543294949001735
 20
4.121884494357638
 10
-7.076829020182291
 20
3.299195692274305
 10
-7.003792995876735
 20
3.170349121093749
 10
-6.931445990668402
 20
3.030822753906249
 10
-6.841873508029513
 20
2.898186577690971
 10
-6.635856797960069
 20
2.562289767795138
 10
-6.356804063585069
 20
2.175061035156249
 10
-6.145275200737846
 20
1.876026746961805
 10
-6.389187961154513
 20
-0.2440850151909722
 10
-8.89652845594618
 20
-0.3253892686631944
 10
-9.809478759765623
 20
-0.6733439127604166
 10
-10.32073092990451
 20
-0.8686808268229166
 10
-10.61976521809895
 20
-1.264522298177083
 10
-10.7327643500434
 20
-1.604208713107638
 10
-10.74585571289062
 20
-1.395091417100694
 10
-10.75067884657118
 20
-1.244540744357638
 10
-10.73000827365451
 20
-1.012685818142361
 10
-10.64525892469618
 20
-0.0397908528645833
 10
-10.24769490559895
 20
0.8611016167534721
 10
-9.344390869140625
 20
1.893596733940972
 10
-9.09841105143229
 20
2.175061035156249
 10
-8.888260226779513
 20
2.383489312065972
 10
-8.57131144205729
 20
2.842720540364583
 10
-8.251606580946178
 20
3.347082519531249
 10
-7.834750027126735
 20
3.995104980468749
 10
-7.687299940321179
 20
4.818827311197916
 97
        0
 75
     2
 76
     1
 98
        1
 10
0.0
 20
0.0
  0
HATCH
  5
D6E
330
D5D
100
AcDbEntity
  8
LAYER_1
 62
   250
100
AcDbHatch
 10
0.0
 20
0.0
 30
0.0
210
0.0
220
0.0
230
1.0
  2
SOLID
 70
     1
 71
     0
 91
        1
 92
        1
 93
        1
 72
     4
 94
        3
 73
     0
 74
     0
 95
       26
 96
       22
 40
0.0
 40
0.0
 40
0.0
 40
0.0
 40
1.0
 40
1.0
 40
1.0
 40
2.0
 40
2.0
 40
2.0
 40
3.0
 40
3.0
 40
3.0
 40
4.0
 40
4.0
 40
4.0
 40
5.0
 40
5.0
 40
5.0
 40
6.0
 40
6.0
 40
6.0
 40
7.0
 40
7.0
 40
7.0
 40
7.0
 10
-5.90480753580729
 20
1.634525553385416
 10
-5.252995469835068
 20
0.5148695203993056
 10
-5.779406060112846
 20
-0.6702433268229166
 10
-6.456711832682291
 20
-1.190797254774305
 10
-7.07958509657118
 20
-1.67001003689236
 10
-8.077284749348956
 20
-1.961120605468749
 10
-9.632400851779513
 20
-1.765439181857638
 10
-10.14847615559895
 20
-1.70067138671875
 10
-10.40892537434896
 20
-2.028988986545138
 10
-10.53846096462673
 20
-2.268078613281249
 10
-10.56602172851562
 20
-2.149911838107638
 10
-10.59496053059896
 20
-2.122351074218749
 10
-10.60942993164062
 20
-2.026232910156249
 10
-10.52468058268229
 20
-1.289326985677083
 10
-9.85150892469618
 20
-1.116727701822916
 10
-9.411225721571179
 20
-0.9958048502604166
 10
-9.148709445529513
 20
-0.9203572591145832
 10
-8.241271294487846
 20
-0.9362046983506942
 10
-7.433740912543401
 20
-0.71158447265625
 10
-6.07223917643229
 20
-0.3326239691840278
 10
-5.794564480251735
 20
1.134986707899305
 10
-5.90480753580729
 20
1.634525553385416
 97
        0
 75
     2
 76
     1
 98
        1
 10
0.0
 20
0.0
  0
HATCH
  5
D6F
330
D5D
100
AcDbEntity
  8
LAYER_1
 62
   250
100
AcDbHatch
 10
0.0
 20
0.0
 30
0.0
210
0.0
220
0.0
230
1.0
  2
SOLID
 70
     1
 71
     0
 91
        1
 92
        1
 93
        1
 72
     4
 94
        3
 73
     0
 74
     0
 95
       32
 96
       28
 40
0.0
 40
0.0
 40
0.0
 40
0.0
 40
1.0
 40
1.0
 40
1.0
 40
2.0
 40
2.0
 40
2.0
 40
3.0
 40
3.0
 40
3.0
 40
4.0
 40
4.0
 40
4.0
 40
5.0
 40
5.0
 40
5.0
 40
6.0
 40
6.0
 40
6.0
 40
7.0
 40
7.0
 40
7.0
 40
8.0
 40
8.0
 40
8.0
 40
9.0
 40
9.0
 40
9.0
 40
9.0
 10
-5.483816867404513
 20
0.9782348632812498
 10
-5.425939263237847
 20
0.9303480360243055
 10
-5.378396945529513
 20
0.8145928276909721
 10
-5.332921685112847
 20
0.7367336697048611
 10
-4.97118665907118
 20
0.1210951063368056
 10
-4.992546251085069
 20
-1.330323621961805
 10
-5.660205756293402
 20
-2.173338487413194
 10
-6.402279324001735
 20
-3.110404459635416
 10
-7.568099636501735
 20
-3.498666720920138
 10
-8.592671034071178
 20
-3.063551161024305
 10
-9.140441216362846
 20
-2.831007215711805
 10
-9.680632188585068
 20
-2.243962944878472
 10
-10.1932623969184
 20
-2.551954481336805
 10
-10.2800788031684
 20
-2.603975423177083
 10
-10.33037719726562
 20
-2.69320339626736
 10
-10.34553561740451
 20
-2.750391981336805
 10
-10.37998657226562
 20
-2.648072645399305
 10
-10.43028496636284
 20
-2.596396213107638
 10
-10.43235202365451
 20
-2.543341742621527
 10
-10.4413092719184
 20
-2.291849772135416
 10
-10.20428670247396
 20
-2.03587917751736
 10
-9.954172770182291
 20
-2.011418999565972
 10
-9.185916476779512
 20
-1.937004937065972
 10
-8.568555365668402
 20
-2.538863118489583
 10
-7.66869642469618
 20
-2.524738226996527
 10
-6.807422553168402
 20
-2.511302354600694
 10
-4.925711398654513
 20
-1.559077962239583
 10
-5.483816867404513
 20
0.9782348632812498
 97
        0
 75
     2
 76
     1
 98
        1
 10
0.0
 20
0.0
  0
HATCH
  5
D70
330
D5D
100
AcDbEntity
  8
LAYER_1
 62
   250
100
AcDbHatch
 10
0.0
 20
0.0
 30
0.0
210
0.0
220
0.0
230
1.0
  2
SOLID
 70
     1
 71
     0
 91
        1
 92
        1
 93
        1
 72
     4
 94
        3
 73
     0
 74
     0
 95
       35
 96
       31
 40
0.0
 40
0.0
 40
0.0
 40
0.0
 40
1.0
 40
1.0
 40
1.0
 40
2.0
 40
2.0
 40
2.0
 40
3.0
 40
3.0
 40
3.0
 40
4.0
 40
4.0
 40
4.0
 40
5.0
 40
5.0
 40
5.0
 40
6.0
 40
6.0
 40
6.0
 40
7.0
 40
7.0
 40
7.0
 40
8.0
 40
8.0
 40
8.0
 40
9.0
 40
9.0
 40
9.0
 40
10.0
 40
10.0
 40
10.0
 40
10.0
 10
-10.25458509657118
 20
-2.917823621961805
 10
-10.23322550455729
 20
-2.771751573350694
 10
-10.15536634657118
 20
-2.687691243489583
 10
-10.03685506184895
 20
-2.677011447482638
 10
-9.404335530598958
 20
-2.61878933376736
 10
-8.535482449001735
 20
-3.780820041232638
 10
-7.621843126085068
 20
-3.848343912760416
 10
-5.57890150282118
 20
-3.999239095052082
 10
-4.371740044487847
 20
-1.677244737413194
 10
-4.973253716362846
 20
-0.0291110568576389
 10
-4.839584011501735
 20
-0.3050632052951388
 10
-4.747255452473957
 20
-0.7412122938368056
 10
-4.746566433376735
 20
-1.241784667968749
 10
-4.784462483723958
 20
-1.794722493489583
 10
-4.914687093098957
 20
-2.371775987413194
 10
-5.234391954210068
 20
-2.896119520399305
 10
-5.652626546223958
 20
-3.581349012586805
 10
-6.374029541015624
 20
-4.137387424045138
 10
-7.561898464626735
 20
-4.160814073350693
 10
-8.239893256293402
 20
-4.174249945746526
 10
-8.696023898654512
 20
-3.935504828559027
 10
-9.156288655598958
 20
-3.554132758246527
 10
-9.412603759765623
 20
-3.341570366753471
 10
-9.613797336154512
 20
-3.056660970052083
 10
-9.918343777126734
 20
-3.067340766059027
 10
-10.09059855143229
 20
-3.073197428385416
 10
-10.06441582573784
 20
-3.129352484809027
 10
-10.07475111219618
 20
-3.178961859809027
 10
-10.1994635687934
 20
-3.068029785156249
 10
-10.18775024414062
 20
-3.029444715711805
 10
-10.25458509657118
 20
-2.917823621961805
 97
        0
 75
     2
 76
     1
 98
        1
 10
0.0
 20
0.0
  0
HATCH
  5
D71
330
D5D
100
AcDbEntity
  8
LAYER_1
 62
   250
100
AcDbHatch
 10
0.0
 20
0.0
 30
0.0
210
0.0
220
0.0
230
1.0
  2
SOLID
 70
     1
 71
     0
 91
        1
 92
        1
 93
        1
 72
     4
 94
        3
 73
     0
 74
     0
 95
       14
 96
       10
 40
0.0
 40
0.0
 40
0.0
 40
0.0
 40
1.0
 40
1.0
 40
1.0
 40
2.0
 40
2.0
 40
2.0
 40
3.0
 40
3.0
 40
3.0
 40
3.0
 10
-9.97553236219618
 20
-3.317799207899305
 10
-9.97553236219618
 20
-3.317799207899305
 10
-9.963819037543402
 20
-3.25440945095486
 10
-9.897673204210068
 20
-3.241662597656249
 10
-9.624821641710068
 20
-3.187919108072916
 10
-9.431207275390624
 20
-3.696759711371527
 10
-9.34645792643229
 20
-3.852822536892361
 10
-9.472548421223956
 20
-3.811825900607638
 10
-9.903874376085068
 20
-3.487642415364582
 10
-9.97553236219618
 20
-3.317799207899305
 97
        0
 75
     2
 76
     1
 98
        1
 10
0.0
 20
0.0
  0
SPLINE
  5
D72
330
D5D
100
AcDbEntity
  8
LAYER_1
 62
     7
100
AcDbSpline
210
0.0
220
0.0
230
1.0
 70
    11
 71
     3
 72
    44
 73
    40
 74
     0
 42
0.0000000001
 43
0.0000000001
 40
0.0
 40
0.0
 40
0.0
 40
0.0
 40
1.0
 40
1.0
 40
1.0
 40
2.0
 40
2.0
 40
2.0
 40
3.0
 40
3.0
 40
3.0
 40
4.0
 40
4.0
 40
4.0
 40
5.0
 40
5.0
 40
5.0
 40
6.0
 40
6.0
 40
6.0
 40
7.0
 40
7.0
 40
7.0
 40
8.0
 40
8.0
 40
8.0
 40
9.0
 40
9.0
 40
9.0
 40
10.0
 40
10.0
 40
10.0
 40
11.0
 40
11.0
 40
11.0
 40
12.0
 40
12.0
 40
12.0
 40
13.0
 40
13.0
 40
13.0
 40
13.0
 10
-7.016195339626735
 20
1.558044433593749
 30
0.0
 10
-7.328320990668402
 20
1.762338595920138
 30
0.0
 10
-7.781006537543402
 20
1.88980712890625
 30
0.0
 10
-8.139296468098956
 20
1.895319281684027
 30
0.0
 10
-8.023541259765623
 20
2.168170844184027
 30
0.0
 10
-7.884359402126735
 20
2.800345865885416
 30
0.0
 10
-7.89813978407118
 20
3.194120279947916
 30
0.0
 10
-7.900206841362846
 20
3.247863769531249
 30
0.0
 10
-7.882292344835068
 20
3.248552788628471
 30
0.0
 10
-7.883670383029513
 20
3.302296278211805
 30
0.0
 10
-8.144808620876736
 20
2.558155653211805
 30
0.0
 10
-8.387343343098956
 20
2.341114637586805
 30
0.0
 10
-8.658816867404512
 20
1.877060275607638
 30
0.0
 10
-8.861388481987846
 20
1.529450141059027
 30
0.0
 10
-9.469792344835068
 20
1.490176052517361
 30
0.0
 10
-9.845307752821179
 20
0.9572197808159721
 30
0.0
 10
-9.845307752821179
 20
0.9572197808159721
 30
0.0
 10
-9.63446790907118
 20
1.064362250434027
 30
0.0
 10
-9.492529975043401
 20
1.113282606336805
 30
0.0
 10
-9.38986612955729
 20
1.148078070746527
 30
0.0
 10
-9.226568603515623
 20
1.194242350260416
 30
0.0
 10
-9.226568603515623
 20
1.194242350260416
 30
0.0
 10
-9.343701850043402
 20
0.9747897677951387
 30
0.0
 10
-9.462213134765624
 20
0.882461208767361
 30
0.0
 10
-9.549029541015624
 20
0.680923122829861
 30
0.0
 10
-9.631022813585069
 20
0.4904093424479166
 30
0.0
 10
-9.700613742404513
 20
0.4066935221354166
 30
0.0
 10
-9.710260009765624
 20
0.1734605577256944
 30
0.0
 10
-9.591748725043402
 20
0.3749986436631944
 30
0.0
 10
-9.267909749348957
 20
0.8521443684895832
 30
0.0
 10
-8.826937527126736
 20
1.04679226345486
 30
0.0
 10
-8.813846164279512
 20
0.6705878363715278
 30
0.0
 10
-8.624365912543401
 20
0.3908460828993055
 30
0.0
 10
-8.457623291015623
 20
0.2351277669270833
 30
0.0
 10
-8.470025634765624
 20
0.57515869140625
 30
0.0
 10
-8.435574679904513
 20
1.131886121961805
 30
0.0
 10
-8.279856363932291
 20
1.298628743489583
 30
0.0
 10
-8.055236138237846
 20
1.539440917968749
 30
0.0
 10
-7.410314263237846
 20
1.544264051649305
 30
0.0
 10
-7.016195339626735
 20
1.558044433593749
 30
0.0
  0
HATCH
  5
D73
330
D5D
100
AcDbEntity
  8
LAYER_1
 62
   250
100
AcDbHatch
 10
0.0
 20
0.0
 30
0.0
210
0.0
220
0.0
230
1.0
  2
SOLID
 70
     1
 71
     0
 91
        2
 92
        1
 93
        1
 72
     4
 94
        3
 73
     0
 74
     0
 95
       20
 96
       16
 40
0.0
 40
0.0
 40
0.0
 40
0.0
 40
1.0
 40
1.0
 40
1.0
 40
2.0
 40
2.0
 40
2.0
 40
3.0
 40
3.0
 40
3.0
 40
4.0
 40
4.0
 40
4.0
 40
5.0
 40
5.0
 40
5.0
 40
5.0
 10
-3.319607883029513
 20
0.512802463107639
 10
-3.319607883029513
 20
0.512802463107639
 10
-3.319607883029513
 20
0.9610093858506944
 10
-3.319607883029513
 20
0.9610093858506944
 10
-3.319607883029513
 20
0.9610093858506944
 10
-3.125993516710069
 20
0.9610093858506944
 10
-3.125993516710069
 20
0.9610093858506944
 10
-2.975098334418402
 20
0.9610093858506944
 10
-2.911708577473957
 20
0.8993421766493055
 10
-2.911708577473957
 20
0.7508585611979166
 10
-2.911708577473957
 20
0.6826456705729166
 10
-2.911708577473957
 20
0.512802463107639
 10
-3.093609619140624
 20
0.512802463107639
 10
-3.093609619140624
 20
0.512802463107639
 10
-3.319607883029513
 20
0.512802463107639
 10
-3.319607883029513
 20
0.512802463107639
 97
        0
 92
       16
 93
        1
 72
     4
 94
        3
 73
     0
 74
     0
 95
       26
 96
       22
 40
0.0
 40
0.0
 40
0.0
 40
0.0
 40
1.0
 40
1.0
 40
1.0
 40
2.0
 40
2.0
 40
2.0
 40
3.0
 40
3.0
 40
3.0
 40
4.0
 40
4.0
 40
4.0
 40
5.0
 40
5.0
 40
5.0
 40
6.0
 40
6.0
 40
6.0
 40
7.0
 40
7.0
 40
7.0
 40
7.0
 10
-3.319607883029513
 20
0.2499416775173611
 10
-3.319607883029513
 20
0.2499416775173611
 10
-3.039866129557291
 20
0.2499416775173611
 10
-3.039866129557291
 20
0.2499416775173611
 10
-2.72636244032118
 20
0.2499416775173611
 10
-2.667795817057291
 20
0.5978963216145833
 10
-2.667795817057291
 20
0.7360446506076388
 10
-2.667795817057291
 20
1.035078938802083
 10
-2.804221598307291
 20
1.223870171440972
 10
-3.03021986219618
 20
1.223870171440972
 10
-3.03021986219618
 20
1.223870171440972
 10
-3.56352064344618
 20
1.223870171440972
 10
-3.56352064344618
 20
1.223870171440972
 10
-3.56352064344618
 20
1.223870171440972
 10
-3.56352064344618
 20
-0.2998955620659722
 10
-3.56352064344618
 20
-0.2998955620659722
 10
-3.56352064344618
 20
-0.2998955620659722
 10
-3.319607883029513
 20
-0.2998955620659722
 10
-3.319607883029513
 20
-0.2998955620659722
 10
-3.319607883029513
 20
-0.2998955620659722
 10
-3.319607883029513
 20
0.2499416775173611
 10
-3.319607883029513
 20
0.2499416775173611
 97
        0
 75
     0
 76
     1
 98
        1
 10
0.0
 20
0.0
  0
HATCH
  5
D74
330
D5D
100
AcDbEntity
  8
LAYER_1
 62
   250
100
AcDbHatch
 10
0.0
 20
0.0
 30
0.0
210
0.0
220
0.0
230
1.0
  2
SOLID
 70
     1
 71
     0
 91
        2
 92
        1
 93
        1
 72
     4
 94
        3
 73
     0
 74
     0
 95
       20
 96
       16
 40
0.0
 40
0.0
 40
0.0
 40
0.0
 40
1.0
 40
1.0
 40
1.0
 40
2.0
 40
2.0
 40
2.0
 40
3.0
 40
3.0
 40
3.0
 40
4.0
 40
4.0
 40
4.0
 40
5.0
 40
5.0
 40
5.0
 40
5.0
 10
-2.083507622612847
 20
0.55345458984375
 10
-2.083507622612847
 20
0.55345458984375
 10
-2.083507622612847
 20
0.9610093858506944
 10
-2.083507622612847
 20
0.9610093858506944
 10
-2.083507622612847
 20
0.9610093858506944
 10
-1.779650200737846
 20
0.9610093858506944
 10
-1.779650200737846
 20
0.9610093858506944
 10
-1.637023247612846
 20
0.9610093858506944
 10
-1.608773464626735
 20
0.84180908203125
 10
-1.608773464626735
 20
0.7615383572048611
 10
-1.608773464626735
 20
0.6106431749131945
 10
-1.670785183376735
 20
0.55345458984375
 10
-1.797564697265624
 20
0.55345458984375
 10
-1.797564697265624
 20
0.55345458984375
 10
-2.083507622612847
 20
0.55345458984375
 10
-2.083507622612847
 20
0.55345458984375
 97
        0
 92
       16
 93
        1
 72
     4
 94
        3
 73
     0
 74
     0
 95
       44
 96
       40
 40
0.0
 40
0.0
 40
0.0
 40
0.0
 40
1.0
 40
1.0
 40
1.0
 40
2.0
 40
2.0
 40
2.0
 40
3.0
 40
3.0
 40
3.0
 40
4.0
 40
4.0
 40
4.0
 40
5.0
 40
5.0
 40
5.0
 40
6.0
 40
6.0
 40
6.0
 40
7.0
 40
7.0
 40
7.0
 40
8.0
 40
8.0
 40
8.0
 40
9.0
 40
9.0
 40
9.0
 40
10.0
 40
10.0
 40
10.0
 40
11.0
 40
11.0
 40
11.0
 40
12.0
 40
12.0
 40
12.0
 40
13.0
 40
13.0
 40
13.0
 40
13.0
 10
-2.322597249348957
 20
-0.2998955620659722
 10
-2.322597249348957
 20
-0.2998955620659722
 10
-2.083507622612847
 20
-0.2998955620659722
 10
-2.083507622612847
 20
-0.2998955620659722
 10
-2.083507622612847
 20
-0.2998955620659722
 10
-2.083507622612847
 20
0.2964504665798611
 10
-2.083507622612847
 20
0.2964504665798611
 10
-2.083507622612847
 20
0.2964504665798611
 10
-1.832015652126735
 20
0.2964504665798611
 10
-1.832015652126735
 20
0.2964504665798611
 10
-1.651492648654513
 20
0.2964504665798611
 10
-1.64115736219618
 20
0.2158352322048611
 10
-1.64115736219618
 20
0.00775146484375
 10
-1.64115736219618
 20
-0.1490003797743056
 10
-1.631511094835069
 20
-0.22789306640625
 10
-1.615663655598958
 20
-0.2998955620659722
 10
-1.615663655598958
 20
-0.2998955620659722
 10
-1.345568169487847
 20
-0.2998955620659722
 10
-1.345568169487847
 20
-0.2998955620659722
 10
-1.345568169487847
 20
-0.2998955620659722
 10
-1.345568169487847
 20
-0.2595879448784722
 10
-1.345568169487847
 20
-0.2595879448784722
 10
-1.397933620876735
 20
-0.23409423828125
 10
-1.397933620876735
 20
-0.1786282009548611
 10
-1.397933620876735
 20
0.0439249674479167
 10
-1.397933620876735
 20
0.3284898546006944
 10
-1.449610053168402
 20
0.3749986436631944
 10
-1.545383707682291
 20
0.4301201714409723
 10
-1.43031751844618
 20
0.4811075846354166
 10
-1.364860704210069
 20
0.6254570855034722
 10
-1.364860704210069
 20
0.7932332356770833
 10
-1.364860704210069
 20
0.9244913736979166
 10
-1.422049289279513
 20
1.223870171440972
 10
-1.732796902126735
 20
1.223870171440972
 10
-1.732796902126735
 20
1.223870171440972
 10
-2.322597249348957
 20
1.223870171440972
 10
-2.322597249348957
 20
1.223870171440972
 10
-2.322597249348957
 20
1.223870171440972
 10
-2.322597249348957
 20
-0.2998955620659722
 10
-2.322597249348957
 20
-0.2998955620659722
 97
        0
 75
     0
 76
     1
 98
        1
 10
0.0
 20
0.0
  0
HATCH
  5
D75
330
D5D
100
AcDbEntity
  8
LAYER_1
 62
   250
100
AcDbHatch
 10
0.0
 20
0.0
 30
0.0
210
0.0
220
0.0
230
1.0
  2
SOLID
 70
     1
 71
     0
 91
        1
 92
        3
 72
     0
 73
     1
 93
        4
 10
-0.7667921278211805
 20
1.223870171440972
 10
-1.010704888237847
 20
1.223870171440972
 10
-1.010704888237847
 20
-0.2998955620659722
 10
-0.7667921278211805
 20
-0.2998955620659722
 97
        0
 75
     2
 76
     1
 98
        1
 10
0.0
 20
0.0
  0
HATCH
  5
D76
330
D5D
100
AcDbEntity
  8
LAYER_1
 62
   250
100
AcDbHatch
 10
0.0
 20
0.0
 30
0.0
210
0.0
220
0.0
230
1.0
  2
SOLID
 70
     1
 71
     0
 91
        1
 92
        3
 72
     0
 73
     1
 93
       12
 10
0.3196187337239583
 20
0.16278076171875
 10
0.3168626573350694
 20
0.16278076171875
 10
-0.1468471950954861
 20
1.223870171440972
 10
-0.4036790635850694
 20
1.223870171440972
 10
-0.4036790635850694
 20
-0.2998955620659722
 10
-0.1764750162760416
 20
-0.2998955620659722
 10
-0.1764750162760416
 20
0.7866875542534722
 10
-0.1730299207899305
 20
0.7866875542534722
 10
0.3037712944878472
 20
-0.2998955620659722
 10
0.547684054904514
 20
-0.2998955620659722
 10
0.547684054904514
 20
1.223870171440972
 10
0.3196187337239583
 20
1.223870171440972
 97
        0
 75
     2
 76
     1
 98
        1
 10
0.0
 20
0.0
  0
HATCH
  5
D77
330
D5D
100
AcDbEntity
  8
LAYER_1
 62
   250
100
AcDbHatch
 10
0.0
 20
0.0
 30
0.0
210
0.0
220
0.0
230
1.0
  2
SOLID
 70
     1
 71
     0
 91
        1
 92
        3
 72
     0
 73
     1
 93
        8
 10
1.435140652126736
 20
0.9544637044270832
 10
1.787918429904513
 20
0.9544637044270832
 10
1.787918429904513
 20
1.223870171440972
 10
0.8384501139322916
 20
1.223870171440972
 10
0.8384501139322916
 20
0.9544637044270832
 10
1.191227891710069
 20
0.9544637044270832
 10
1.191227891710069
 20
-0.2998955620659722
 10
1.435140652126736
 20
-0.2998955620659722
 97
        0
 75
     2
 76
     1
 98
        1
 10
0.0
 20
0.0
  0
HATCH
  5
D78
330
D5D
100
AcDbEntity
  8
LAYER_1
 62
   250
100
AcDbHatch
 10
0.0
 20
0.0
 30
0.0
210
0.0
220
0.0
230
1.0
  2
SOLID
 70
     1
 71
     0
 91
        1
 92
        3
 72
     0
 73
     1
 93
       12
 10
2.946159532335069
 20
1.223870171440972
 10
2.08764173719618
 20
1.223870171440972
 10
2.08764173719618
 20
-0.2998955620659722
 10
2.973720296223957
 20
-0.2998955620659722
 10
2.973720296223957
 20
-0.0304890950520833
 10
2.326731363932291
 20
-0.0304890950520833
 10
2.326731363932291
 20
0.36431884765625
 10
2.895861138237846
 20
0.36431884765625
 10
2.895861138237846
 20
0.63406982421875
 10
2.326731363932291
 20
0.63406982421875
 10
2.326731363932291
 20
0.9544637044270832
 10
2.946159532335069
 20
0.9544637044270832
 97
        0
 75
     2
 76
     1
 98
        1
 10
0.0
 20
0.0
  0
HATCH
  5
D79
330
D5D
100
AcDbEntity
  8
LAYER_1
 62
   250
100
AcDbHatch
 10
0.0
 20
0.0
 30
0.0
210
0.0
220
0.0
230
1.0
  2
SOLID
 70
     1
 71
     0
 91
        2
 92
        1
 93
        1
 72
     4
 94
        3
 73
     0
 74
     0
 95
       20
 96
       16
 40
0.0
 40
0.0
 40
0.0
 40
0.0
 40
1.0
 40
1.0
 40
1.0
 40
2.0
 40
2.0
 40
2.0
 40
3.0
 40
3.0
 40
3.0
 40
4.0
 40
4.0
 40
4.0
 40
5.0
 40
5.0
 40
5.0
 40
5.0
 10
3.567654758029513
 20
0.9610093858506944
 10
3.567654758029513
 20
0.9610093858506944
 10
3.801921251085069
 20
0.9610093858506944
 10
3.801921251085069
 20
0.9610093858506944
 10
3.905963134765624
 20
0.9610093858506944
 10
4.069949679904513
 20
0.9244913736979166
 10
4.069949679904513
 20
0.4745619032118056
 10
4.069949679904513
 20
0.2244479709201389
 10
4.003114827473957
 20
-0.0366902669270833
 10
3.80536634657118
 20
-0.0366902669270833
 10
3.80536634657118
 20
-0.0366902669270833
 10
3.567654758029513
 20
-0.0366902669270833
 10
3.567654758029513
 20
-0.0366902669270833
 10
3.567654758029513
 20
-0.0366902669270833
 10
3.567654758029513
 20
0.9610093858506944
 10
3.567654758029513
 20
0.9610093858506944
 97
        0
 92
       16
 93
        1
 72
     4
 94
        3
 73
     0
 74
     0
 95
       20
 96
       16
 40
0.0
 40
0.0
 40
0.0
 40
0.0
 40
1.0
 40
1.0
 40
1.0
 40
2.0
 40
2.0
 40
2.0
 40
3.0
 40
3.0
 40
3.0
 40
4.0
 40
4.0
 40
4.0
 40
5.0
 40
5.0
 40
5.0
 40
5.0
 10
3.328565131293402
 20
-0.2998955620659722
 10
3.328565131293402
 20
-0.2998955620659722
 10
3.834305148654513
 20
-0.2998955620659722
 10
3.834305148654513
 20
-0.2998955620659722
 10
4.219466824001735
 20
-0.2998955620659722
 10
4.318685574001735
 20
0.1710489908854166
 10
4.318685574001735
 20
0.4979885525173611
 10
4.318685574001735
 20
0.7866875542534722
 10
4.237381320529513
 20
1.223870171440972
 10
3.843951416015624
 20
1.223870171440972
 10
3.843951416015624
 20
1.223870171440972
 10
3.328565131293402
 20
1.223870171440972
 10
3.328565131293402
 20
1.223870171440972
 10
3.328565131293402
 20
1.223870171440972
 10
3.328565131293402
 20
-0.2998955620659722
 10
3.328565131293402
 20
-0.2998955620659722
 97
        0
 75
     0
 76
     1
 98
        1
 10
0.0
 20
0.0
  0
HATCH
  5
D7A
330
D5D
100
AcDbEntity
  8
LAYER_1
 62
   250
100
AcDbHatch
 10
0.0
 20
0.0
 30
0.0
210
0.0
220
0.0
230
1.0
  2
SOLID
 70
     1
 71
     0
 91
        1
 92
        1
 93
        1
 72
     4
 94
        3
 73
     0
 74
     0
 95
       53
 96
       49
 40
0.0
 40
0.0
 40
0.0
 40
0.0
 40
1.0
 40
1.0
 40
1.0
 40
2.0
 40
2.0
 40
2.0
 40
3.0
 40
3.0
 40
3.0
 40
4.0
 40
4.0
 40
4.0
 40
5.0
 40
5.0
 40
5.0
 40
6.0
 40
6.0
 40
6.0
 40
7.0
 40
7.0
 40
7.0
 40
8.0
 40
8.0
 40
8.0
 40
9.0
 40
9.0
 40
9.0
 40
10.0
 40
10.0
 40
10.0
 40
11.0
 40
11.0
 40
11.0
 40
12.0
 40
12.0
 40
12.0
 40
13.0
 40
13.0
 40
13.0
 40
14.0
 40
14.0
 40
14.0
 40
15.0
 40
15.0
 40
15.0
 40
16.0
 40
16.0
 40
16.0
 40
16.0
 10
5.416292995876735
 20
-0.2998955620659722
 10
5.416292995876735
 20
-0.2998955620659722
 10
5.643669297960069
 20
-0.2998955620659722
 10
5.643669297960069
 20
-0.2998955620659722
 10
5.769070773654513
 20
0.48524169921875
 10
5.788363308376735
 20
0.5954847547743056
 10
5.82419230143229
 20
0.888662380642361
 10
5.82419230143229
 20
0.888662380642361
 10
5.827637396918402
 20
0.888662380642361
 10
5.827637396918402
 20
0.888662380642361
 10
5.866222466362846
 20
0.5954847547743056
 10
5.887582058376735
 20
0.4470011393229166
 10
6.008160400390624
 20
-0.2998955620659722
 10
6.008160400390624
 20
-0.2998955620659722
 10
6.241737874348957
 20
-0.2998955620659722
 10
6.241737874348957
 20
-0.2998955620659722
 10
6.241737874348957
 20
-0.2998955620659722
 10
6.570399983723957
 20
1.223870171440972
 10
6.570399983723957
 20
1.223870171440972
 10
6.570399983723957
 20
1.223870171440972
 10
6.32304212782118
 20
1.223870171440972
 10
6.32304212782118
 20
1.223870171440972
 10
6.172146945529513
 20
0.3856784396701389
 10
6.15285441080729
 20
0.2540757921006944
 10
6.132872856987846
 20
0.1097262912326389
 10
6.132872856987846
 20
0.1097262912326389
 10
6.130116780598958
 20
0.1097262912326389
 10
6.130116780598958
 20
0.1097262912326389
 10
6.103934054904513
 20
0.3071302625868055
 10
6.092909749348957
 20
0.3877454969618055
 10
5.956483968098957
 20
1.223870171440972
 10
5.956483968098957
 20
1.223870171440972
 10
5.697412787543401
 20
1.223870171440972
 10
5.697412787543401
 20
1.223870171440972
 10
5.574078369140624
 20
0.4239189995659722
 10
5.556163872612846
 20
0.2688897026909722
 10
5.534804280598957
 20
0.1097262912326389
 10
5.534804280598957
 20
0.1097262912326389
 10
5.531359185112846
 20
0.1097262912326389
 10
5.531359185112846
 20
0.1097262912326389
 10
5.51068861219618
 20
0.28370361328125
 10
5.495530192057291
 20
0.3898125542534721
 10
5.346013047960068
 20
1.223870171440972
 10
5.346013047960068
 20
1.223870171440972
 10
5.086252848307291
 20
1.223870171440972
 10
5.086252848307291
 20
1.223870171440972
 10
5.086252848307291
 20
1.223870171440972
 10
5.416292995876735
 20
-0.2998955620659722
 10
5.416292995876735
 20
-0.2998955620659722
 97
        0
 75
     2
 76
     1
 98
        1
 10
0.0
 20
0.0
  0
HATCH
  5
D7B
330
D5D
100
AcDbEntity
  8
LAYER_1
 62
   250
100
AcDbHatch
 10
0.0
 20
0.0
 30
0.0
210
0.0
220
0.0
230
1.0
  2
SOLID
 70
     1
 71
     0
 91
        1
 92
        3
 72
     0
 73
     1
 93
        4
 10
7.105767822265624
 20
1.223870171440972
 10
6.861855061848957
 20
1.223870171440972
 10
6.861855061848957
 20
-0.2998955620659722
 10
7.105767822265624
 20
-0.2998955620659722
 97
        0
 75
     2
 76
     1
 98
        1
 10
0.0
 20
0.0
  0
HATCH
  5
D7C
330
D5D
100
AcDbEntity
  8
LAYER_1
 62
   250
100
AcDbHatch
 10
0.0
 20
0.0
 30
0.0
210
0.0
220
0.0
230
1.0
  2
SOLID
 70
     1
 71
     0
 91
        1
 92
        3
 72
     0
 73
     1
 93
        8
 10
7.976687961154513
 20
0.9544637044270832
 10
8.32946573893229
 20
0.9544637044270832
 10
8.32946573893229
 20
1.223870171440972
 10
7.379997422960069
 20
1.223870171440972
 10
7.379997422960069
 20
0.9544637044270832
 10
7.732775200737846
 20
0.9544637044270832
 10
7.732775200737846
 20
-0.2998955620659722
 10
7.976687961154513
 20
-0.2998955620659722
 97
        0
 75
     2
 76
     1
 98
        1
 10
0.0
 20
0.0
  0
HATCH
  5
D7D
330
D5D
100
AcDbEntity
  8
LAYER_1
 62
   250
100
AcDbHatch
 10
0.0
 20
0.0
 30
0.0
210
0.0
220
0.0
230
1.0
  2
SOLID
 70
     1
 71
     0
 91
        1
 92
        3
 72
     0
 73
     1
 93
       12
 10
9.320275200737846
 20
0.3832668728298611
 10
9.320275200737846
 20
-0.2998955620659722
 10
9.564187961154512
 20
-0.2998955620659722
 10
9.564187961154512
 20
1.223870171440972
 10
9.320275200737846
 20
1.223870171440972
 10
9.320275200737846
 20
0.6468166775173611
 10
8.864833577473957
 20
0.6468166775173611
 10
8.864833577473957
 20
1.223870171440972
 10
8.620920817057291
 20
1.223870171440972
 10
8.620920817057291
 20
-0.2998955620659722
 10
8.864833577473957
 20
-0.2998955620659722
 10
8.864833577473957
 20
0.3832668728298611
 97
        0
 75
     2
 76
     1
 98
        1
 10
0.0
 20
0.0
  0
HATCH
  5
D7E
330
D5D
100
AcDbEntity
  8
LAYER_1
 62
   250
100
AcDbHatch
 10
0.0
 20
0.0
 30
0.0
210
0.0
220
0.0
230
1.0
  2
SOLID
 70
     1
 71
     0
 91
        1
 92
        1
 93
        1
 72
     4
 94
        3
 73
     0
 74
     0
 95
       53
 96
       49
 40
0.0
 40
0.0
 40
0.0
 40
0.0
 40
1.0
 40
1.0
 40
1.0
 40
2.0
 40
2.0
 40
2.0
 40
3.0
 40
3.0
 40
3.0
 40
4.0
 40
4.0
 40
4.0
 40
5.0
 40
5.0
 40
5.0
 40
6.0
 40
6.0
 40
6.0
 40
7.0
 40
7.0
 40
7.0
 40
8.0
 40
8.0
 40
8.0
 40
9.0
 40
9.0
 40
9.0
 40
10.0
 40
10.0
 40
10.0
 40
11.0
 40
11.0
 40
11.0
 40
12.0
 40
12.0
 40
12.0
 40
13.0
 40
13.0
 40
13.0
 40
14.0
 40
14.0
 40
14.0
 40
15.0
 40
15.0
 40
15.0
 40
16.0
 40
16.0
 40
16.0
 40
16.0
 10
-3.612440999348958
 20
-3.091111924913194
 10
-3.612440999348958
 20
-3.398758951822916
 10
-3.453277587890624
 20
-3.921379937065971
 10
-2.525168863932291
 20
-3.921379937065971
 10
-2.301926676432291
 20
-3.921379937065971
 10
-1.522646077473958
 20
-3.855578613281249
 10
-1.522646077473958
 20
-3.108337402343749
 10
-1.522646077473958
 20
-2.661508517795138
 10
-1.841661919487846
 20
-2.523015679253472
 10
-2.188927544487846
 20
-2.439988878038194
 10
-2.188927544487846
 20
-2.439988878038194
 10
-2.809044731987846
 20
-2.290816243489583
 10
-2.809044731987846
 20
-2.290816243489583
 10
-2.915153672960069
 20
-2.266700575086805
 10
-3.077762179904513
 20
-2.225359429253471
 10
-3.077762179904513
 20
-2.031745062934027
 10
-3.077762179904513
 20
-1.806435818142361
 10
-2.837294514973958
 20
-1.733744303385416
 10
-2.635411919487847
 20
-1.733744303385416
 10
-2.171013047960069
 20
-1.733744303385416
 10
-2.128293863932291
 20
-1.996949598524305
 10
-2.114513481987847
 20
-2.107537163628471
 10
-2.114513481987847
 20
-2.107537163628471
 10
-1.60395033094618
 20
-2.107537163628471
 10
-1.60395033094618
 20
-2.107537163628471
 10
-1.608084445529513
 20
-1.802990722656249
 10
-1.816857231987847
 20
-1.304485405815972
 10
-2.59613783094618
 20
-1.304485405815972
 10
-3.421582709418402
 20
-1.304485405815972
 10
-3.573855929904513
 20
-1.792310926649305
 10
-3.573855929904513
 20
-2.06964111328125
 10
-3.573855929904513
 20
-2.616722276475694
 10
-3.176980929904513
 20
-2.706639268663194
 10
-2.766325547960069
 20
-2.800001356336805
 10
-2.766325547960069
 20
-2.800001356336805
 10
-2.493473985460069
 20
-2.862357584635416
 10
-2.493473985460069
 20
-2.862357584635416
 10
-2.22406751844618
 20
-2.924369303385416
 10
-2.032520209418402
 20
-2.976734754774305
 10
-2.032520209418402
 20
-3.170349121093749
 10
-2.032520209418402
 20
-3.433554416232638
 10
-2.312950981987846
 20
-3.492465549045138
 10
-2.564442952473958
 20
-3.492465549045138
 10
-3.028152804904513
 20
-3.492465549045138
 10
-3.099121771918402
 20
-3.229260253906249
 10
-3.102566867404513
 20
-3.091111924913194
 10
-3.102566867404513
 20
-3.091111924913194
 10
-3.612440999348958
 20
-3.091111924913194
 10
-3.612440999348958
 20
-3.091111924913194
 97
        0
 75
     2
 76
     1
 98
        1
 10
0.0
 20
0.0
  0
HATCH
  5
D7F
330
D5D
100
AcDbEntity
  8
LAYER_1
 62
   250
100
AcDbHatch
 10
0.0
 20
0.0
 30
0.0
210
0.0
220
0.0
230
1.0
  2
SOLID
 70
     1
 71
     0
 91
        2
 92
        1
 93
        1
 72
     4
 94
        3
 73
     0
 74
     0
 95
       17
 96
       13
 40
0.0
 40
0.0
 40
0.0
 40
0.0
 40
1.0
 40
1.0
 40
1.0
 40
2.0
 40
2.0
 40
2.0
 40
3.0
 40
3.0
 40
3.0
 40
4.0
 40
4.0
 40
4.0
 40
4.0
 10
-0.821224636501736
 20
-2.613277180989582
 10
-0.821224636501736
 20
-1.917023383246527
 10
-0.4174594455295139
 20
-1.744079589843749
 10
-0.1303107367621528
 20
-1.744079589843749
 10
0.1563212076822916
 20
-1.744079589843749
 10
0.5600863986545139
 20
-1.917023383246527
 10
0.5600863986545139
 20
-2.613277180989582
 10
0.5600863986545139
 20
-3.308841959635416
 10
0.1563212076822916
 20
-3.482130262586805
 10
-0.1303107367621528
 20
-3.482130262586805
 10
-0.4174594455295139
 20
-3.482130262586805
 10
-0.821224636501736
 20
-3.308841959635416
 10
-0.821224636501736
 20
-2.613277180989582
 97
        0
 92
       16
 93
        1
 72
     4
 94
        3
 73
     0
 74
     0
 95
       17
 96
       13
 40
0.0
 40
0.0
 40
0.0
 40
0.0
 40
1.0
 40
1.0
 40
1.0
 40
2.0
 40
2.0
 40
2.0
 40
3.0
 40
3.0
 40
3.0
 40
4.0
 40
4.0
 40
4.0
 40
4.0
 10
-1.352458360460069
 20
-2.613277180989582
 10
-1.352458360460069
 20
-3.779786512586805
 10
-0.4670688205295139
 20
-3.921379937065971
 10
-0.1303107367621528
 20
-3.921379937065971
 10
0.2059305826822916
 20
-3.921379937065971
 10
1.091320122612847
 20
-3.779786512586805
 10
1.091320122612847
 20
-2.613277180989582
 10
1.091320122612847
 20
-1.446423339843749
 10
0.2059305826822916
 20
-1.304485405815972
 10
-0.1303107367621528
 20
-1.304485405815972
 10
-0.4670688205295139
 20
-1.304485405815972
 10
-1.352458360460069
 20
-1.446423339843749
 10
-1.352458360460069
 20
-2.613277180989582
 97
        0
 75
     0
 76
     1
 98
        1
 10
0.0
 20
0.0
  0
HATCH
  5
D80
330
D5D
100
AcDbEntity
  8
LAYER_1
 62
   250
100
AcDbHatch
 10
0.0
 20
0.0
 30
0.0
210
0.0
220
0.0
230
1.0
  2
SOLID
 70
     1
 71
     0
 91
        1
 92
        3
 72
     0
 73
     1
 93
        9
 10
2.350158013237846
 20
-2.924369303385416
 10
3.200407579210069
 20
-1.370286729600694
 10
2.598893907335069
 20
-1.370286729600694
 10
2.095220947265624
 20
-2.450324164496527
 10
1.567432318793402
 20
-1.370286729600694
 10
0.9404249403211805
 20
-1.370286729600694
 10
1.818924289279513
 20
-2.917479112413193
 10
1.818924289279513
 20
-3.855578613281249
 10
2.350158013237846
 20
-3.855578613281249
 97
        0
 75
     2
 76
     1
 98
        1
 10
0.0
 20
0.0
  0
HATCH
  5
D81
330
D5D
100
AcDbEntity
  8
LAYER_1
 62
   250
100
AcDbHatch
 10
0.0
 20
0.0
 30
0.0
210
0.0
220
0.0
230
1.0
  2
SOLID
 70
     1
 71
     0
 91
        1
 92
        3
 72
     0
 73
     1
 93
        4
 10
4.449599202473957
 20
-1.370286729600694
 10
3.918365478515624
 20
-1.370286729600694
 10
3.918365478515624
 20
-3.855578613281249
 10
4.449599202473957
 20
-3.855578613281249
 97
        0
 75
     2
 76
     1
 98
        1
 10
0.0
 20
0.0
  0
HATCH
  5
D82
330
D5D
100
AcDbEntity
  8
LAYER_1
 62
   250
100
AcDbHatch
 10
0.0
 20
0.0
 30
0.0
210
0.0
220
0.0
230
1.0
  2
SOLID
 70
     1
 71
     0
 91
        1
 92
        3
 72
     0
 73
     1
 93
       12
 10
6.448443603515624
 20
-3.101447211371527
 10
6.441553412543401
 20
-3.101447211371527
 10
5.432140435112846
 20
-1.370286729600694
 10
4.871967909071179
 20
-1.370286729600694
 10
4.871967909071179
 20
-3.855578613281249
 10
5.368061659071179
 20
-3.855578613281249
 10
5.368061659071179
 20
-2.083421495225694
 10
5.374951850043402
 20
-2.083421495225694
 10
6.41330362955729
 20
-3.855578613281249
 10
6.944537353515624
 20
-3.855578613281249
 10
6.944537353515624
 20
-1.370286729600694
 10
6.448443603515624
 20
-1.370286729600694
 97
        0
 75
     2
 76
     1
 98
        1
 10
0.0
 20
0.0
  0
HATCH
  5
D83
330
D5D
100
AcDbEntity
  8
LAYER_1
 62
   250
100
AcDbHatch
 10
0.0
 20
0.0
 30
0.0
210
0.0
220
0.0
230
1.0
  2
SOLID
 70
     1
 71
     0
 91
        1
 92
        3
 72
     0
 73
     1
 93
       12
 10
7.888493516710068
 20
-3.014630805121527
 10
8.136540391710068
 20
-2.765205891927083
 10
8.923400200737846
 20
-3.855578613281249
 10
9.60690714518229
 20
-3.855578613281249
 10
8.508610704210068
 20
-2.387967936197916
 10
9.546273464626734
 20
-1.370286729600694
 10
8.85932142469618
 20
-1.370286729600694
 10
7.888493516710068
 20
-2.381077745225694
 10
7.888493516710068
 20
-1.370286729600694
 10
7.357259792751735
 20
-1.370286729600694
 10
7.357259792751735
 20
-3.855578613281249
 10
7.888493516710068
 20
-3.855578613281249
 97
        0
 75
     2
 76
     1
 98
        1
 10
0.0
 20
0.0
  0
HATCH
  5
D84
330
D5D
100
AcDbEntity
  8
LAYER_1
 62
   250
100
AcDbHatch
 10
0.0
 20
0.0
 30
0.0
210
0.0
220
0.0
230
1.0
  2
SOLID
 70
     1
 71
     0
 91
        1
 92
        3
 72
     0
 73
     1
 93
        8
 10
10.91673244900173
 20
-4.26209988064236
 10
10.91673244900173
 20
-4.343404134114583
 10
10.76583726671007
 20
-4.343404134114583
 10
10.76583726671007
 20
-4.722020128038193
 10
10.65972832573784
 20
-4.722020128038193
 10
10.65972832573784
 20
-4.343404134114583
 10
10.50745510525173
 20
-4.343404134114583
 10
10.50745510525173
 20
-4.26209988064236
 97
        0
 75
     2
 76
     1
 98
        1
 10
0.0
 20
0.0
  0
HATCH
  5
D85
330
D5D
100
AcDbEntity
  8
LAYER_1
 62
   250
100
AcDbHatch
 10
0.0
 20
0.0
 30
0.0
210
0.0
220
0.0
230
1.0
  2
SOLID
 70
     1
 71
     0
 91
        1
 92
        1
 93
        1
 72
     4
 94
        3
 73
     0
 74
     0
 95
       56
 96
       52
 40
0.0
 40
0.0
 40
0.0
 40
0.0
 40
1.0
 40
1.0
 40
1.0
 40
2.0
 40
2.0
 40
2.0
 40
3.0
 40
3.0
 40
3.0
 40
4.0
 40
4.0
 40
4.0
 40
5.0
 40
5.0
 40
5.0
 40
6.0
 40
6.0
 40
6.0
 40
7.0
 40
7.0
 40
7.0
 40
8.0
 40
8.0
 40
8.0
 40
9.0
 40
9.0
 40
9.0
 40
10.0
 40
10.0
 40
10.0
 40
11.0
 40
11.0
 40
11.0
 40
12.0
 40
12.0
 40
12.0
 40
13.0
 40
13.0
 40
13.0
 40
14.0
 40
14.0
 40
14.0
 40
15.0
 40
15.0
 40
15.0
 40
16.0
 40
16.0
 40
16.0
 40
17.0
 40
17.0
 40
17.0
 40
17.0
 10
11.44658813476562
 20
-4.26209988064236
 10
11.44658813476562
 20
-4.26209988064236
 10
11.59886135525173
 20
-4.26209988064236
 10
11.59886135525173
 20
-4.26209988064236
 10
11.59886135525173
 20
-4.26209988064236
 10
11.59886135525173
 20
-4.722020128038193
 10
11.59886135525173
 20
-4.722020128038193
 10
11.59886135525173
 20
-4.722020128038193
 10
11.50033162434896
 20
-4.722020128038193
 10
11.50033162434896
 20
-4.722020128038193
 10
11.50033162434896
 20
-4.722020128038193
 10
11.50033162434896
 20
-4.41092800564236
 10
11.50033162434896
 20
-4.41092800564236
 10
11.50033162434896
 20
-4.401970757378471
 10
11.50033162434896
 20
-4.389568413628471
 10
11.50033162434896
 20
-4.373376464843749
 10
11.50033162434896
 20
-4.357529025607638
 10
11.50033162434896
 20
-4.345126681857638
 10
11.50033162434896
 20
-4.336169433593749
 10
11.50033162434896
 20
-4.336169433593749
 10
11.40524698893229
 20
-4.722020128038193
 10
11.40524698893229
 20
-4.722020128038193
 10
11.40524698893229
 20
-4.722020128038193
 10
11.30258314344618
 20
-4.722020128038193
 10
11.30258314344618
 20
-4.722020128038193
 10
11.30258314344618
 20
-4.722020128038193
 10
11.20749850802951
 20
-4.336169433593749
 10
11.20749850802951
 20
-4.336169433593749
 10
11.20749850802951
 20
-4.345126681857638
 10
11.20749850802951
 20
-4.357529025607638
 10
11.20818752712673
 20
-4.373376464843749
 10
11.20818752712673
 20
-4.389568413628471
 10
11.20818752712673
 20
-4.401970757378471
 10
11.20818752712673
 20
-4.41092800564236
 10
11.20818752712673
 20
-4.41092800564236
 10
11.20818752712673
 20
-4.722020128038193
 10
11.20818752712673
 20
-4.722020128038193
 10
11.20818752712673
 20
-4.722020128038193
 10
11.11034681532118
 20
-4.722020128038193
 10
11.11034681532118
 20
-4.722020128038193
 10
11.11034681532118
 20
-4.722020128038193
 10
11.11034681532118
 20
-4.26209988064236
 10
11.11034681532118
 20
-4.26209988064236
 10
11.11034681532118
 20
-4.26209988064236
 10
11.26330905490451
 20
-4.26209988064236
 10
11.26330905490451
 20
-4.26209988064236
 10
11.26330905490451
 20
-4.26209988064236
 10
11.35563761393229
 20
-4.623834906684026
 10
11.35563761393229
 20
-4.623834906684026
 10
11.35563761393229
 20
-4.623834906684026
 10
11.44658813476562
 20
-4.26209988064236
 10
11.44658813476562
 20
-4.26209988064236
 97
        0
 75
     0
 76
     1
 98
        1
 10
0.0
 20
0.0
  0
ENDBLK
  5
D86
330
D5D
100
AcDbEntity
  8
LAYER_1
100
AcDbBlockEnd
  0
BLOCK
  5
D88
330
D87
100
AcDbEntity
  8
0
 62
     1
370
    50
100
AcDbBlockBegin
  2
A$C03B71B66
 70
     0
 10
0.0
 20
0.0
 30
0.0
  3
A$C03B71B66
  1

  0
INSERT
  5
D89
330
D87
100
AcDbEntity
  8
LAYER_1
 62
     7
100
AcDbBlockReference
  2
AI9-BLK1
 10
1.427809150929562
 20
0.5902524834870917
 30
0.0
 41
0.125
 42
0.125
 43
0.125
  0
ENDBLK
  5
D8A
330
D87
100
AcDbEntity
  8
0
 62
     1
370
    50
100
AcDbBlockEnd
  0
BLOCK
  5
DB9
330
DB7
100
AcDbEntity
  8
0
100
AcDbBlockBegin
  2
d
 70
     0
 10
0.0
 20
0.0
 30
0.0
  3
d
  1

  0
LINE
  5
DBA
330
DB7
100
AcDbEntity
  8
EbLayer9
 62
     7
100
AcDbLine
 10
8993.054616067793
 20
1898.810069432608
 30
0.0
 11
8992.952032878184
 21
1896.776694969381
 31
0.0
1001
AcDbBlockRepETag
1070
     1
1071
        0
1005
DBA
  0
LINE
  5
DBB
330
DB7
100
AcDbEntity
  8
EbLayer9
 62
     7
100
AcDbLine
 10
8987.899401299237
 20
1910.98722128517
 30
0.0
 11
9008.42571708871
 21
1910.98722128517
 31
0.0
1001
AcDbBlockRepETag
1070
     1
1071
        1
1005
DBB
  0
LINE
  5
DBC
330
DB7
100
AcDbEntity
  8
EbLayer9
 62
     7
100
AcDbLine
 10
8987.899401299237
 20
1910.98722128517
 30
0.0
 11
8987.899401299237
 21
1896.776694969381
 31
0.0
1001
AcDbBlockRepETag
1070
     1
1071
        2
1005
DBC
  0
LINE
  5
DBD
330
DB7
100
AcDbEntity
  8
EbLayer9
 62
     7
100
AcDbLine
 10
8987.899401299237
 20
1896.776694969381
 30
0.0
 11
8992.952032878184
 21
1896.776694969381
 31
0.0
1001
AcDbBlockRepETag
1070
     1
1071
        3
1005
DBD
  0
ARC
  5
DBE
330
DB7
100
AcDbEntity
  8
EbLayer9
 62
     7
100
AcDbCircle
 10
9000.215190772919
 20
1899.303010758855
 30
0.0
 40
6.947368421052622
100
AcDbArc
 50
90.0
 51
153.3766547574232
1001
AcDbBlockRepETag
1070
     1
1071
        4
1005
DBE
  0
ARC
  5
DBF
330
DB7
100
AcDbEntity
  8
EbLayer9
 62
     7
100
AcDbCircle
 10
9002.109927615027
 20
1898.353231423563
 30
0.0
 40
9.066827900867385
100
AcDbArc
 50
153.3766547574348
 51
177.1118935699077
1001
AcDbBlockRepETag
1070
     1
1071
        5
1005
DBF
  0
LINE
  5
DC0
330
DB7
100
AcDbEntity
  8
EbLayer9
 62
     7
100
AcDbLine
 10
9000.215190772919
 20
1906.250379179907
 30
0.0
 11
9003.688874983447
 21
1906.250379179907
 31
0.0
1001
AcDbBlockRepETag
1070
     1
1071
        6
1005
DC0
  0
LINE
  5
DC1
330
DB7
100
AcDbEntity
  8
EbLayer9
 62
     7
100
AcDbLine
 10
8995.794138141341
 20
1877.829326548328
 30
0.0
 11
8995.794138141341
 21
1873.092484443065
 31
0.0
1001
AcDbBlockRepETag
1070
     1
1071
        7
1005
DC1
  0
LINE
  5
DC2
330
DB7
100
AcDbEntity
  8
EbLayer9
 62
     7
100
AcDbLine
 10
8995.794138141341
 20
1873.092484443065
 30
0.0
 11
9008.42571708871
 21
1873.092484443065
 31
0.0
1001
AcDbBlockRepETag
1070
     1
1071
        8
1005
DC2
  0
ARC
  5
DC3
330
DB7
100
AcDbEntity
  8
EbLayer9
 62
     7
100
AcDbCircle
 10
9001.478348667658
 20
1880.039852864117
 30
0.0
 40
2.210526315789474
100
AcDbArc
 50
270.0000030592861
 51
0.0000078501422693
1001
AcDbBlockRepETag
1070
     1
1071
        9
1005
DC3
  0
LINE
  5
DC4
330
DB7
100
AcDbEntity
  8
EbLayer9
 62
     7
100
AcDbLine
 10
9003.688874983447
 20
1906.250379179907
 30
0.0
 11
9003.688874983447
 21
1880.039852561252
 31
0.0
1001
AcDbBlockRepETag
1070
     1
1071
       10
1005
DC4
  0
LINE
  5
DC5
330
DB7
100
AcDbEntity
  8
EbLayer9
 62
     7
100
AcDbLine
 10
8995.794138141341
 20
1877.829326548328
 30
0.0
 11
9001.478348803948
 21
1877.829326548328
 31
0.0
1001
AcDbBlockRepETag
1070
     1
1071
       11
1005
DC5
  0
LINE
  5
DC6
330
DB7
100
AcDbEntity
  8
EbLayer9
 62
     7
100
AcDbLine
 10
9023.796818109628
 20
1898.810069432608
 30
0.0
 11
9023.899401299237
 21
1896.776694969381
 31
0.0
1001
AcDbBlockRepETag
1070
     1
1071
       12
1005
DC6
  0
LINE
  5
DC7
330
DB7
100
AcDbEntity
  8
EbLayer9
 62
     7
100
AcDbLine
 10
9028.952032878184
 20
1910.98722128517
 30
0.0
 11
9028.952032878184
 21
1896.776694969381
 31
0.0
1001
AcDbBlockRepETag
1070
     1
1071
       13
1005
DC7
  0
LINE
  5
DC8
330
DB7
100
AcDbEntity
  8
EbLayer9
 62
     7
100
AcDbLine
 10
9028.952032878184
 20
1896.776694969381
 30
0.0
 11
9023.899401299237
 21
1896.776694969381
 31
0.0
1001
AcDbBlockRepETag
1070
     1
1071
       14
1005
DC8
  0
ARC
  5
DC9
330
DB7
100
AcDbEntity
  8
EbLayer9
 62
     7
100
AcDbCircle
 10
9016.636243404501
 20
1899.303010758855
 30
0.0
 40
6.947368421052622
100
AcDbArc
 50
26.62334524256512
 51
90.0
1001
AcDbBlockRepETag
1070
     1
1071
       15
1005
DC9
  0
ARC
  5
DCA
330
DB7
100
AcDbEntity
  8
EbLayer9
 62
     7
100
AcDbCircle
 10
9014.741506562392
 20
1898.353231423563
 30
0.0
 40
9.066827900867385
100
AcDbArc
 50
2.888106430105267
 51
26.62334524257676
1001
AcDbBlockRepETag
1070
     1
1071
       16
1005
DCA
  0
LINE
  5
DCB
330
DB7
100
AcDbEntity
  8
EbLayer9
 62
     7
100
AcDbLine
 10
9016.636243404501
 20
1906.250379179907
 30
0.0
 11
9013.162559193974
 21
1906.250379179907
 31
0.0
1001
AcDbBlockRepETag
1070
     1
1071
       17
1005
DCB
  0
LINE
  5
DCC
330
DB7
100
AcDbEntity
  8
EbLayer9
 62
     7
100
AcDbLine
 10
9021.057296036079
 20
1877.829326548328
 30
0.0
 11
9021.057296036079
 21
1873.092484443065
 31
0.0
1001
AcDbBlockRepETag
1070
     1
1071
       18
1005
DCC
  0
ARC
  5
DCD
330
DB7
100
AcDbEntity
  8
EbLayer9
 62
     7
100
AcDbCircle
 10
9015.373085509763
 20
1880.039852864117
 30
0.0
 40
2.210526315789474
100
AcDbArc
 50
180.0
 51
270.0000047908041
1001
AcDbBlockRepETag
1070
     1
1071
       19
1005
DCD
  0
LINE
  5
DCE
330
DB7
100
AcDbEntity
  8
EbLayer9
 62
     7
100
AcDbLine
 10
9013.162559193974
 20
1906.250379179907
 30
0.0
 11
9013.162559193974
 21
1880.039852561252
 31
0.0
1001
AcDbBlockRepETag
1070
     1
1071
       20
1005
DCE
  0
LINE
  5
DCF
330
DB7
100
AcDbEntity
  8
EbLayer9
 62
     7
100
AcDbLine
 10
9021.057296036079
 20
1877.829326548328
 30
0.0
 11
9015.373085373473
 21
1877.829326548328
 31
0.0
1001
AcDbBlockRepETag
1070
     1
1071
       21
1005
DCF
  0
LINE
  5
DD0
330
DB7
100
AcDbEntity
  8
EbLayer9
 62
     7
100
AcDbLine
 10
9021.057296036079
 20
1873.092484443065
 30
0.0
 11
9008.42571708871
 21
1873.092484443065
 31
0.0
1001
AcDbBlockRepETag
1070
     1
1071
       22
1005
DD0
  0
LINE
  5
DD1
330
DB7
100
AcDbEntity
  8
EbLayer9
 62
     7
100
AcDbLine
 10
9028.952032878184
 20
1910.98722128517
 30
0.0
 11
9008.42571708871
 21
1910.98722128517
 31
0.0
1001
AcDbBlockRepETag
1070
     1
1071
       23
1005
DD1
  0
ARC
  5
DD2
330
DB7
100
AcDbEntity
  8
EbLayer9
 62
     7
100
AcDbCircle
 10
9050.899401299238
 20
1893.934589706222
 30
0.0
 40
18.47368421052628
100
AcDbArc
 50
123.2283345790473
 51
147.3722951475082
1001
AcDbBlockRepETag
1070
     1
1071
       24
1005
DD2
  0
ARC
  5
DD3
330
DB7
100
AcDbEntity
  8
EbLayer9
 62
     7
100
AcDbCircle
 10
9054.21519077292
 20
1882.566168653591
 30
0.0
 40
30.00000000000006
100
AcDbArc
 50
90.0
 51
116.613179948938
1001
AcDbBlockRepETag
1070
     1
1071
       25
1005
DD3
  0
ARC
  5
DD4
330
DB7
100
AcDbEntity
  8
EbLayer9
 62
     7
100
AcDbCircle
 10
9057.373085509764
 20
1892.039852864118
 30
0.0
 40
25.01921699087665
100
AcDbArc
 50
151.7155350991591
 51
180.000000000013
1001
AcDbBlockRepETag
1070
     1
1071
       26
1005
DD4
  0
ARC
  5
DD5
330
DB7
100
AcDbEntity
  8
EbLayer9
 62
     7
100
AcDbCircle
 10
9054.21519077292
 20
1882.566168653591
 30
0.0
 40
30.00000000000006
100
AcDbArc
 50
63.38682005106201
 51
90.0
1001
AcDbBlockRepETag
1070
     1
1071
       27
1005
DD5
  0
ARC
  5
DD6
330
DB7
100
AcDbEntity
  8
EbLayer9
 62
     7
100
AcDbCircle
 10
9057.530980246605
 20
1893.934589706222
 30
0.0
 40
18.47368421052628
100
AcDbArc
 50
32.62770485255892
 51
56.77166542095987
1001
AcDbBlockRepETag
1070
     1
1071
       28
1005
DD6
  0
ARC
  5
DD7
330
DB7
100
AcDbEntity
  8
EbLayer9
 62
     7
100
AcDbCircle
 10
9051.057296036079
 20
1892.039852864118
 30
0.0
 40
25.01921699087665
100
AcDbArc
 50
0.0
 51
28.28446490085239
1001
AcDbBlockRepETag
1070
     1
1071
       29
1005
DD7
  0
ARC
  5
DD8
330
DB7
100
AcDbEntity
  8
EbLayer9
 62
     7
100
AcDbCircle
 10
9057.373085509764
 20
1892.039852864118
 30
0.0
 40
25.01921699087665
100
AcDbArc
 50
180.0
 51
208.2844649008524
1001
AcDbBlockRepETag
1070
     1
1071
       30
1005
DD8
  0
ARC
  5
DD9
330
DB7
100
AcDbEntity
  8
EbLayer9
 62
     7
100
AcDbCircle
 10
9050.899401299238
 20
1890.145116022012
 30
0.0
 40
18.47368421052628
100
AcDbArc
 50
212.6277048525027
 51
236.7716654209599
1001
AcDbBlockRepETag
1070
     1
1071
       31
1005
DD9
  0
ARC
  5
DDA
330
DB7
100
AcDbEntity
  8
EbLayer9
 62
     7
100
AcDbCircle
 10
9054.21519077292
 20
1901.513537074644
 30
0.0
 40
30.00000000000006
100
AcDbArc
 50
243.386820051062
 51
270.0
1001
AcDbBlockRepETag
1070
     1
1071
       32
1005
DDA
  0
ARC
  5
DDB
330
DB7
100
AcDbEntity
  8
EbLayer9
 62
     7
100
AcDbCircle
 10
9054.21519077292
 20
1901.513537074644
 30
0.0
 40
30.00000000000006
100
AcDbArc
 50
270.0
 51
296.6131799489379
1001
AcDbBlockRepETag
1070
     1
1071
       33
1005
DDB
  0
ARC
  5
DDC
330
DB7
100
AcDbEntity
  8
EbLayer9
 62
     7
100
AcDbCircle
 10
9057.530980246605
 20
1890.145116022012
 30
0.0
 40
18.47368421052628
100
AcDbArc
 50
303.2283345790473
 51
327.3722951475083
1001
AcDbBlockRepETag
1070
     1
1071
       34
1005
DDC
  0
ARC
  5
DDD
330
DB7
100
AcDbEntity
  8
EbLayer9
 62
     7
100
AcDbCircle
 10
9051.057296036079
 20
1892.039852864118
 30
0.0
 40
25.01921699087665
100
AcDbArc
 50
331.7155350991591
 51
0.0000000000130276
1001
AcDbBlockRepETag
1070
     1
1071
       35
1005
DDD
  0
ARC
  5
DDE
330
DB7
100
AcDbEntity
  8
EbLayer9
 62
     7
100
AcDbCircle
 10
9054.21519077292
 20
1896.776694969381
 30
0.0
 40
10.81578947368426
100
AcDbArc
 50
90.0
 51
137.4956699051434
1001
AcDbBlockRepETag
1070
     1
1071
       36
1005
DDE
  0
ARC
  5
DDF
330
DB7
100
AcDbEntity
  8
EbLayer9
 62
     7
100
AcDbCircle
 10
9054.84676972029
 20
1896.776694969381
 30
0.0
 40
11.28947368421053
100
AcDbArc
 50
139.6618731991424
 51
180.000000000013
1001
AcDbBlockRepETag
1070
     1
1071
       37
1005
DDF
  0
ARC
  5
DE0
330
DB7
100
AcDbEntity
  8
EbLayer9
 62
     7
100
AcDbCircle
 10
9076.320453930817
 20
1892.039852864118
 30
0.0
 40
33.10380927273632
100
AcDbArc
 50
171.7732775359098
 51
180.000000000013
1001
AcDbBlockRepETag
1070
     1
1071
       38
1005
DE0
  0
ARC
  5
DE1
330
DB7
100
AcDbEntity
  8
EbLayer9
 62
     7
100
AcDbCircle
 10
9054.21519077292
 20
1896.776694969381
 30
0.0
 40
10.81578947368426
100
AcDbArc
 50
42.5043300948566
 51
90.0
1001
AcDbBlockRepETag
1070
     1
1071
       39
1005
DE1
  0
ARC
  5
DE2
330
DB7
100
AcDbEntity
  8
EbLayer9
 62
     7
100
AcDbCircle
 10
9053.583611825551
 20
1896.776694969381
 30
0.0
 40
11.28947368421053
100
AcDbArc
 50
0.0
 51
40.33812680085757
1001
AcDbBlockRepETag
1070
     1
1071
       40
1005
DE2
  0
ARC
  5
DE3
330
DB7
100
AcDbEntity
  8
EbLayer9
 62
     7
100
AcDbCircle
 10
9032.109927615024
 20
1892.039852864118
 30
0.0
 40
33.10380927273632
100
AcDbArc
 50
0.0
 51
8.226722464103046
1001
AcDbBlockRepETag
1070
     1
1071
       41
1005
DE3
  0
ARC
  5
DE4
330
DB7
100
AcDbEntity
  8
EbLayer9
 62
     7
100
AcDbCircle
 10
9076.320453930817
 20
1892.039852864118
 30
0.0
 40
33.10380927273632
100
AcDbArc
 50
180.0
 51
188.226722464103
1001
AcDbBlockRepETag
1070
     1
1071
       42
1005
DE4
  0
ARC
  5
DE5
330
DB7
100
AcDbEntity
  8
EbLayer9
 62
     7
100
AcDbCircle
 10
9054.84676972029
 20
1887.303010758854
 30
0.0
 40
11.28947368421053
100
AcDbArc
 50
180.0
 51
220.3381268008576
1001
AcDbBlockRepETag
1070
     1
1071
       43
1005
DE5
  0
ARC
  5
DE6
330
DB7
100
AcDbEntity
  8
EbLayer9
 62
     7
100
AcDbCircle
 10
9054.21519077292
 20
1887.303010758854
 30
0.0
 40
10.81578947368426
100
AcDbArc
 50
222.5043300948566
 51
270.0
1001
AcDbBlockRepETag
1070
     1
1071
       44
1005
DE6
  0
ARC
  5
DE7
330
DB7
100
AcDbEntity
  8
EbLayer9
 62
     7
100
AcDbCircle
 10
9054.21519077292
 20
1887.303010758854
 30
0.0
 40
10.81578947368426
100
AcDbArc
 50
270.0
 51
317.4956699051434
1001
AcDbBlockRepETag
1070
     1
1071
       45
1005
DE7
  0
ARC
  5
DE8
330
DB7
100
AcDbEntity
  8
EbLayer9
 62
     7
100
AcDbCircle
 10
9053.583611825551
 20
1887.303010758854
 30
0.0
 40
11.28947368421053
100
AcDbArc
 50
319.6618731991424
 51
0.0000000000130276
1001
AcDbBlockRepETag
1070
     1
1071
       46
1005
DE8
  0
ARC
  5
DE9
330
DB7
100
AcDbEntity
  8
EbLayer9
 62
     7
100
AcDbCircle
 10
9032.109927615024
 20
1892.039852864118
 30
0.0
 40
33.10380927273632
100
AcDbArc
 50
351.7732775359098
 51
0.0000000000130276
1001
AcDbBlockRepETag
1070
     1
1071
       47
1005
DE9
  0
LINE
  5
DEA
330
DB7
100
AcDbEntity
  8
EbLayer9
 62
     7
100
AcDbLine
 10
9115.375765478049
 20
1898.810069432608
 30
0.0
 11
9115.478348667657
 21
1896.776694969381
 31
0.0
1001
AcDbBlockRepETag
1070
     1
1071
       48
1005
DEA
  0
LINE
  5
DEB
330
DB7
100
AcDbEntity
  8
EbLayer9
 62
     7
100
AcDbLine
 10
9120.530980246606
 20
1910.98722128517
 30
0.0
 11
9100.004664457133
 21
1910.98722128517
 31
0.0
1001
AcDbBlockRepETag
1070
     1
1071
       49
1005
DEB
  0
LINE
  5
DEC
330
DB7
100
AcDbEntity
  8
EbLayer9
 62
     7
100
AcDbLine
 10
9120.530980246606
 20
1910.98722128517
 30
0.0
 11
9120.530980246606
 21
1896.776694969381
 31
0.0
1001
AcDbBlockRepETag
1070
     1
1071
       50
1005
DEC
  0
LINE
  5
DED
330
DB7
100
AcDbEntity
  8
EbLayer9
 62
     7
100
AcDbLine
 10
9120.530980246606
 20
1896.776694969381
 30
0.0
 11
9115.478348667657
 21
1896.776694969381
 31
0.0
1001
AcDbBlockRepETag
1070
     1
1071
       51
1005
DED
  0
ARC
  5
DEE
330
DB7
100
AcDbEntity
  8
EbLayer9
 62
     7
100
AcDbCircle
 10
9108.21519077292
 20
1899.303010758855
 30
0.0
 40
6.947368421052622
100
AcDbArc
 50
26.62334524256512
 51
90.0
1001
AcDbBlockRepETag
1070
     1
1071
       52
1005
DEE
  0
ARC
  5
DEF
330
DB7
100
AcDbEntity
  8
EbLayer9
 62
     7
100
AcDbCircle
 10
9106.320453930816
 20
1898.353231423563
 30
0.0
 40
9.066827900867385
100
AcDbArc
 50
2.888106430105267
 51
26.62334524257676
1001
AcDbBlockRepETag
1070
     1
1071
       53
1005
DEF
  0
LINE
  5
DF0
330
DB7
100
AcDbEntity
  8
EbLayer9
 62
     7
100
AcDbLine
 10
9108.21519077292
 20
1906.250379179907
 30
0.0
 11
9104.741506562394
 21
1906.250379179907
 31
0.0
1001
AcDbBlockRepETag
1070
     1
1071
       54
1005
DF0
  0
LINE
  5
DF1
330
DB7
100
AcDbEntity
  8
EbLayer9
 62
     7
100
AcDbLine
 10
9112.6362434045
 20
1877.829326548328
 30
0.0
 11
9112.6362434045
 21
1873.092484443065
 31
0.0
1001
AcDbBlockRepETag
1070
     1
1071
       55
1005
DF1
  0
LINE
  5
DF2
330
DB7
100
AcDbEntity
  8
EbLayer9
 62
     7
100
AcDbLine
 10
9112.6362434045
 20
1873.092484443065
 30
0.0
 11
9100.004664457133
 21
1873.092484443065
 31
0.0
1001
AcDbBlockRepETag
1070
     1
1071
       56
1005
DF2
  0
ARC
  5
DF3
330
DB7
100
AcDbEntity
  8
EbLayer9
 62
     7
100
AcDbCircle
 10
9106.952032878183
 20
1880.039852864117
 30
0.0
 40
2.210526315789474
100
AcDbArc
 50
180.0
 51
270.0000047908041
1001
AcDbBlockRepETag
1070
     1
1071
       57
1005
DF3
  0
LINE
  5
DF4
330
DB7
100
AcDbEntity
  8
EbLayer9
 62
     7
100
AcDbLine
 10
9104.741506562394
 20
1906.250379179907
 30
0.0
 11
9104.741506562394
 21
1880.039852561252
 31
0.0
1001
AcDbBlockRepETag
1070
     1
1071
       58
1005
DF4
  0
LINE
  5
DF5
330
DB7
100
AcDbEntity
  8
EbLayer9
 62
     7
100
AcDbLine
 10
9112.6362434045
 20
1877.829326548328
 30
0.0
 11
9106.952032741896
 21
1877.829326548328
 31
0.0
1001
AcDbBlockRepETag
1070
     1
1071
       59
1005
DF5
  0
LINE
  5
DF6
330
DB7
100
AcDbEntity
  8
EbLayer9
 62
     7
100
AcDbLine
 10
9084.633563436215
 20
1898.810069432608
 30
0.0
 11
9084.530980246606
 21
1896.776694969381
 31
0.0
1001
AcDbBlockRepETag
1070
     1
1071
       60
1005
DF6
  0
LINE
  5
DF7
330
DB7
100
AcDbEntity
  8
EbLayer9
 62
     7
100
AcDbLine
 10
9079.478348667656
 20
1910.98722128517
 30
0.0
 11
9079.478348667656
 21
1896.776694969381
 31
0.0
1001
AcDbBlockRepETag
1070
     1
1071
       61
1005
DF7
  0
LINE
  5
DF8
330
DB7
100
AcDbEntity
  8
EbLayer9
 62
     7
100
AcDbLine
 10
9079.478348667656
 20
1896.776694969381
 30
0.0
 11
9084.530980246606
 21
1896.776694969381
 31
0.0
1001
AcDbBlockRepETag
1070
     1
1071
       62
1005
DF8
  0
ARC
  5
DF9
330
DB7
100
AcDbEntity
  8
EbLayer9
 62
     7
100
AcDbCircle
 10
9091.794138141343
 20
1899.303010758855
 30
0.0
 40
6.947368421052622
100
AcDbArc
 50
90.0
 51
153.3766547574232
1001
AcDbBlockRepETag
1070
     1
1071
       63
1005
DF9
  0
ARC
  5
DFA
330
DB7
100
AcDbEntity
  8
EbLayer9
 62
     7
100
AcDbCircle
 10
9093.688874983447
 20
1898.353231423563
 30
0.0
 40
9.066827900867385
100
AcDbArc
 50
153.3766547574232
 51
177.1118935698947
1001
AcDbBlockRepETag
1070
     1
1071
       64
1005
DFA
  0
LINE
  5
DFB
330
DB7
100
AcDbEntity
  8
EbLayer9
 62
     7
100
AcDbLine
 10
9091.794138141343
 20
1906.250379179907
 30
0.0
 11
9095.267822351869
 21
1906.250379179907
 31
0.0
1001
AcDbBlockRepETag
1070
     1
1071
       65
1005
DFB
  0
LINE
  5
DFC
330
DB7
100
AcDbEntity
  8
EbLayer9
 62
     7
100
AcDbLine
 10
9087.373085509764
 20
1877.829326548328
 30
0.0
 11
9087.373085509764
 21
1873.092484443065
 31
0.0
1001
AcDbBlockRepETag
1070
     1
1071
       66
1005
DFC
  0
ARC
  5
DFD
330
DB7
100
AcDbEntity
  8
EbLayer9
 62
     7
100
AcDbCircle
 10
9093.057296036079
 20
1880.039852864117
 30
0.0
 40
2.210526315789474
100
AcDbArc
 50
270.0000030592861
 51
0.0000078501683244
1001
AcDbBlockRepETag
1070
     1
1071
       67
1005
DFD
  0
LINE
  5
DFE
330
DB7
100
AcDbEntity
  8
EbLayer9
 62
     7
100
AcDbLine
 10
9095.267822351869
 20
1906.250379179907
 30
0.0
 11
9095.267822351869
 21
1880.039852561252
 31
0.0
1001
AcDbBlockRepETag
1070
     1
1071
       68
1005
DFE
  0
LINE
  5
DFF
330
DB7
100
AcDbEntity
  8
EbLayer9
 62
     7
100
AcDbLine
 10
9087.373085509764
 20
1877.829326548328
 30
0.0
 11
9093.057296172368
 21
1877.829326548328
 31
0.0
1001
AcDbBlockRepETag
1070
     1
1071
       69
1005
DFF
  0
LINE
  5
E00
330
DB7
100
AcDbEntity
  8
EbLayer9
 62
     7
100
AcDbLine
 10
9087.373085509764
 20
1873.092484443065
 30
0.0
 11
9100.004664457133
 21
1873.092484443065
 31
0.0
1001
AcDbBlockRepETag
1070
     1
1071
       70
1005
E00
  0
LINE
  5
E01
330
DB7
100
AcDbEntity
  8
EbLayer9
 62
     7
100
AcDbLine
 10
9079.478348667656
 20
1910.98722128517
 30
0.0
 11
9100.004664457133
 21
1910.98722128517
 31
0.0
1001
AcDbBlockRepETag
1070
     1
1071
       71
1005
E01
  0
ARC
  5
E02
330
DB7
100
AcDbEntity
  8
EbLayer9
 62
     7
100
AcDbCircle
 10
9149.109927615027
 20
1893.934589706222
 30
0.0
 40
18.47368421052628
100
AcDbArc
 50
32.62770485255892
 51
56.77166542095987
1001
AcDbBlockRepETag
1070
     1
1071
       72
1005
E02
  0
ARC
  5
E03
330
DB7
100
AcDbEntity
  8
EbLayer9
 62
     7
100
AcDbCircle
 10
9145.794138141342
 20
1882.566168653591
 30
0.0
 40
30.00000000000006
100
AcDbArc
 50
63.38682005106201
 51
90.0
1001
AcDbBlockRepETag
1070
     1
1071
       73
1005
E03
  0
ARC
  5
E04
330
DB7
100
AcDbEntity
  8
EbLayer9
 62
     7
100
AcDbCircle
 10
9142.636243404501
 20
1892.039852864118
 30
0.0
 40
25.01921699087665
100
AcDbArc
 50
0.0
 51
28.28446490085239
1001
AcDbBlockRepETag
1070
     1
1071
       74
1005
E04
  0
ARC
  5
E05
330
DB7
100
AcDbEntity
  8
EbLayer9
 62
     7
100
AcDbCircle
 10
9145.794138141342
 20
1882.566168653591
 30
0.0
 40
30.00000000000006
100
AcDbArc
 50
90.0
 51
116.613179948938
1001
AcDbBlockRepETag
1070
     1
1071
       75
1005
E05
  0
ARC
  5
E06
330
DB7
100
AcDbEntity
  8
EbLayer9
 62
     7
100
AcDbCircle
 10
9142.478348667657
 20
1893.934589706222
 30
0.0
 40
18.47368421052628
100
AcDbArc
 50
123.2283345790473
 51
147.3722951475082
1001
AcDbBlockRepETag
1070
     1
1071
       76
1005
E06
  0
ARC
  5
E07
330
DB7
100
AcDbEntity
  8
EbLayer9
 62
     7
100
AcDbCircle
 10
9148.952032878183
 20
1892.039852864118
 30
0.0
 40
25.01921699087665
100
AcDbArc
 50
151.7155350991591
 51
180.000000000013
1001
AcDbBlockRepETag
1070
     1
1071
       77
1005
E07
  0
ARC
  5
E08
330
DB7
100
AcDbEntity
  8
EbLayer9
 62
     7
100
AcDbCircle
 10
9142.636243404501
 20
1892.039852864118
 30
0.0
 40
25.01921699087665
100
AcDbArc
 50
331.7155350991591
 51
0.0000000000130276
1001
AcDbBlockRepETag
1070
     1
1071
       78
1005
E08
  0
ARC
  5
E09
330
DB7
100
AcDbEntity
  8
EbLayer9
 62
     7
100
AcDbCircle
 10
9149.109927615027
 20
1890.145116022012
 30
0.0
 40
18.47368421052628
100
AcDbArc
 50
303.2283345790473
 51
327.3722951475083
1001
AcDbBlockRepETag
1070
     1
1071
       79
1005
E09
  0
ARC
  5
E0A
330
DB7
100
AcDbEntity
  8
EbLayer9
 62
     7
100
AcDbCircle
 10
9145.794138141342
 20
1901.513537074644
 30
0.0
 40
30.00000000000006
100
AcDbArc
 50
270.0
 51
296.6131799489379
1001
AcDbBlockRepETag
1070
     1
1071
       80
1005
E0A
  0
ARC
  5
E0B
330
DB7
100
AcDbEntity
  8
EbLayer9
 62
     7
100
AcDbCircle
 10
9145.794138141342
 20
1901.513537074644
 30
0.0
 40
30.00000000000006
100
AcDbArc
 50
243.386820051062
 51
270.0
1001
AcDbBlockRepETag
1070
     1
1071
       81
1005
E0B
  0
ARC
  5
E0C
330
DB7
100
AcDbEntity
  8
EbLayer9
 62
     7
100
AcDbCircle
 10
9142.478348667657
 20
1890.145116022012
 30
0.0
 40
18.47368421052628
100
AcDbArc
 50
212.6277048525589
 51
236.7716654209599
1001
AcDbBlockRepETag
1070
     1
1071
       82
1005
E0C
  0
ARC
  5
E0D
330
DB7
100
AcDbEntity
  8
EbLayer9
 62
     7
100
AcDbCircle
 10
9148.952032878183
 20
1892.039852864118
 30
0.0
 40
25.01921699087665
100
AcDbArc
 50
180.0
 51
208.2844649008524
1001
AcDbBlockRepETag
1070
     1
1071
       83
1005
E0D
  0
ARC
  5
E0E
330
DB7
100
AcDbEntity
  8
EbLayer9
 62
     7
100
AcDbCircle
 10
9145.794138141342
 20
1896.776694969381
 30
0.0
 40
10.81578947368426
100
AcDbArc
 50
42.5043300948566
 51
90.0
1001
AcDbBlockRepETag
1070
     1
1071
       84
1005
E0E
  0
ARC
  5
E0F
330
DB7
100
AcDbEntity
  8
EbLayer9
 62
     7
100
AcDbCircle
 10
9145.162559193975
 20
1896.776694969381
 30
0.0
 40
11.28947368421053
100
AcDbArc
 50
0.0
 51
40.33812680085757
1001
AcDbBlockRepETag
1070
     1
1071
       85
1005
E0F
  0
ARC
  5
E10
330
DB7
100
AcDbEntity
  8
EbLayer9
 62
     7
100
AcDbCircle
 10
9123.688874983448
 20
1892.039852864118
 30
0.0
 40
33.10380927273632
100
AcDbArc
 50
0.0
 51
8.226722464103046
1001
AcDbBlockRepETag
1070
     1
1071
       86
1005
E10
  0
ARC
  5
E11
330
DB7
100
AcDbEntity
  8
EbLayer9
 62
     7
100
AcDbCircle
 10
9145.794138141342
 20
1896.776694969381
 30
0.0
 40
10.81578947368426
100
AcDbArc
 50
90.0
 51
137.4956699051434
1001
AcDbBlockRepETag
1070
     1
1071
       87
1005
E11
  0
ARC
  5
E12
330
DB7
100
AcDbEntity
  8
EbLayer9
 62
     7
100
AcDbCircle
 10
9146.42571708871
 20
1896.776694969381
 30
0.0
 40
11.28947368421053
100
AcDbArc
 50
139.6618731991424
 51
180.000000000013
1001
AcDbBlockRepETag
1070
     1
1071
       88
1005
E12
  0
ARC
  5
E13
330
DB7
100
AcDbEntity
  8
EbLayer9
 62
     7
100
AcDbCircle
 10
9167.899401299237
 20
1892.039852864118
 30
0.0
 40
33.10380927273632
100
AcDbArc
 50
171.7732775359098
 51
180.000000000013
1001
AcDbBlockRepETag
1070
     1
1071
       89
1005
E13
  0
ARC
  5
E14
330
DB7
100
AcDbEntity
  8
EbLayer9
 62
     7
100
AcDbCircle
 10
9123.688874983448
 20
1892.039852864118
 30
0.0
 40
33.10380927273632
100
AcDbArc
 50
351.7732775359098
 51
0.0000000000130276
1001
AcDbBlockRepETag
1070
     1
1071
       90
1005
E14
  0
ARC
  5
E15
330
DB7
100
AcDbEntity
  8
EbLayer9
 62
     7
100
AcDbCircle
 10
9145.162559193975
 20
1887.303010758854
 30
0.0
 40
11.28947368421053
100
AcDbArc
 50
319.6618731991424
 51
0.0000000000130276
1001
AcDbBlockRepETag
1070
     1
1071
       91
1005
E15
  0
ARC
  5
E16
330
DB7
100
AcDbEntity
  8
EbLayer9
 62
     7
100
AcDbCircle
 10
9145.794138141342
 20
1887.303010758854
 30
0.0
 40
10.81578947368426
100
AcDbArc
 50
270.0
 51
317.4956699051434
1001
AcDbBlockRepETag
1070
     1
1071
       92
1005
E16
  0
ARC
  5
E17
330
DB7
100
AcDbEntity
  8
EbLayer9
 62
     7
100
AcDbCircle
 10
9145.794138141342
 20
1887.303010758854
 30
0.0
 40
10.81578947368426
100
AcDbArc
 50
222.5043300948566
 51
270.0
1001
AcDbBlockRepETag
1070
     1
1071
       93
1005
E17
  0
ARC
  5
E18
330
DB7
100
AcDbEntity
  8
EbLayer9
 62
     7
100
AcDbCircle
 10
9146.42571708871
 20
1887.303010758854
 30
0.0
 40
11.28947368421053
100
AcDbArc
 50
180.0
 51
220.3381268008576
1001
AcDbBlockRepETag
1070
     1
1071
       94
1005
E18
  0
ARC
  5
E19
330
DB7
100
AcDbEntity
  8
EbLayer9
 62
     7
100
AcDbCircle
 10
9167.899401299237
 20
1892.039852864118
 30
0.0
 40
33.10380927273632
100
AcDbArc
 50
180.0
 51
188.226722464103
1001
AcDbBlockRepETag
1070
     1
1071
       95
1005
E19
  0
ENDBLK
  5
E1A
330
DB7
100
AcDbEntity
  8
0
100
AcDbBlockEnd
  0
BLOCK
  5
E39
330
E33
100
AcDbEntity
  8
0
 62
     1
100
AcDbBlockBegin
  2
A$C07477C80
 70
     0
 10
0.0
 20
0.0
 30
0.0
  3
A$C07477C80
  1

  0
HATCH
  5
E34
330
E33
100
AcDbEntity
  8
0
  6
ACAD_ISO14W100
370
   100
100
AcDbHatch
 10
0.0
 20
0.0
 30
0.0
210
0.0
220
0.0
230
1.0
  2
SOLID
 70
     1
 71
     1
 91
        6
 92
       22
 72
     1
 73
     1
 93
       12
 10
3.605012510039404
 20
0.7878086777493336
 42
-0.1778486047566086
 10
3.663351598172342
 20
0.6289830982925036
 42
-0.0359112737716334
 10
3.670755373162715
 20
0.5260317662933716
 42
-0.0359112737716325
 10
3.663351598172342
 20
0.4230804342942419
 42
-0.1778486047559623
 10
3.605012510039808
 20
0.2642548548378781
 42
-0.2102576563626656
 10
3.431711101174187
 20
0.1880082262294312
 42
-0.2102576563620291
 10
3.258409692308953
 20
0.2642548548374556
 42
-0.1778486047565422
 10
3.20007060417606
 20
0.423080434294239
 42
-0.0359112737716336
 10
3.192666829185687
 20
0.5260317662933717
 42
-0.0359112737716333
 10
3.20007060417606
 20
0.6289830982925036
 42
-0.1778486047565326
 10
3.258409692308951
 20
0.7878086777492786
 42
-0.2102576563620319
 10
3.431711101174187
 20
0.8640553063573047
 42
-0.2102576563619849
 97
        1
330
E35
 92
        7
 72
     1
 73
     1
 93
       12
 10
3.431711101174187
 20
0.9721542049564263
 42
0.1166466750109612
 10
3.139626831619087
 20
0.9030729366213469
 42
0.1057393628309454
 10
3.021496582800557
 20
0.7836977959037253
 42
0.1240446784519085
 10
2.956573404940835
 20
0.526031766293194
 42
0.1240446784519493
 10
3.021496582800796
 20
0.2683657366826355
 42
0.1057393628303306
 10
3.139626831618591
 20
0.1489905959656296
 42
0.1166466750111767
 10
3.431711101174187
 20
0.0799093276303027
 42
0.1166466750109612
 10
3.723795370729286
 20
0.1489905959653818
 42
0.1057393628309586
 10
3.841925619547845
 20
0.2683657366830037
 42
0.1240446784519152
 10
3.906848797407567
 20
0.5260317662935493
 42
0.1240446784519493
 10
3.841925619547606
 20
0.7836977959041076
 42
0.1057393628303241
 10
3.723795370729811
 20
0.9030729366210993
 42
0.1166466750111876
 97
        1
330
E35
 92
        7
 72
     1
 73
     1
 93
       24
 10
2.33356355984975
 20
0.2652217252288054
 42
-0.4142135623730833
 10
2.285519604916805
 20
0.2171777702958622
 42
0.0
 10
2.161978006517813
 20
0.2171777702958621
 42
0.0
 10
2.161978006517812
 20
0.1142264382966971
 42
0.0
 10
2.436514891848929
 20
0.1142264382966971
 42
0.0
 10
2.711051777179989
 20
0.1142264382966971
 42
0.0
 10
2.711051777179989
 20
0.2171777702958622
 42
0.0
 10
2.587510178781002
 20
0.2171777702958622
 42
-0.4142135623731272
 10
2.539466223848052
 20
0.2652217252288072
 42
0.0
 10
2.539466223848052
 20
0.8348857622908667
 42
0.0
 10
2.614963867314116
 20
0.8348857622908667
 42
-0.2838041811045767
 10
2.749949384074011
 20
0.7515549929493073
 42
-0.1039363694935369
 10
2.770593015888338
 20
0.6731768047300774
 42
0.0
 10
2.772822576379496
 20
0.6289830982925367
 42
0.0
 10
2.882637330511982
 20
0.6289830982925366
 42
0.0
 10
2.882637330511983
 20
0.937837094290039
 42
0.0
 10
2.436514891848929
 20
0.9378370942900389
 42
0.0
 10
1.990392453185819
 20
0.9378370942900389
 42
0.0
 10
1.990392453185819
 20
0.6289830982925367
 42
0.0
 10
2.100207207318305
 20
0.6289830982925367
 42
0.0
 10
2.102436767809503
 20
0.6731768047302939
 42
-0.1039363694934613
 10
2.123080399623863
 20
0.7515549929494556
 42
-0.2838041811043758
 10
2.258065916383737
 20
0.8348857622908667
 42
0.0
 10
2.33356355984975
 20
0.8348857622908667
 42
0.0
 97
        1
330
E35
 92
        7
 72
     1
 73
     1
 93
       12
 10
1.73340295207921
 20
0.9030729366210993
 42
0.1166466750111767
 10
1.441318682523615
 20
0.9721542049564263
 42
0.1166466750109612
 10
1.149234412968515
 20
0.9030729366213469
 42
0.1057393628309325
 10
1.031104164150013
 20
0.7836977959037253
 42
0.1240446784519118
 10
0.9661809862902636
 20
0.526031766293194
 42
0.1240446784519493
 10
1.031104164150224
 20
0.2683657366826355
 42
0.1057393628303434
 10
1.149234412968048
 20
0.1489905959656296
 42
0.1166466750111655
 10
1.441318682523615
 20
0.0799093276303027
 42
0.1166466750109611
 10
1.733402952078714
 20
0.1489905959653818
 42
0.1057393628309457
 10
1.851533200897245
 20
0.2683657366830037
 42
0.1240446784519152
 10
1.916456378756966
 20
0.5260317662935493
 42
0.1240446784519493
 10
1.851533200897005
 20
0.7836977959041076
 42
0.1057393628303241
 97
        1
330
E35
 92
       22
 72
     1
 73
     1
 93
       12
 10
1.672959179521742
 20
0.628983098292504
 42
-0.0359112737716335
 10
1.680362954512114
 20
0.5260317662933716
 42
-0.0359112737716331
 10
1.672959179521742
 20
0.4230804342942402
 42
-0.1778486047565496
 10
1.614620091388845
 20
0.2642548548374509
 42
-0.2102576563620226
 10
1.441318682523615
 20
0.1880082262294312
 42
-0.210257656362654
 10
1.268017273658
 20
0.2642548548378702
 42
-0.1778486047561773
 10
1.20967818552546
 20
0.4230804342944359
 42
-0.0359112737715644
 10
1.202274410535115
 20
0.5260317662933717
 42
-0.0359112737715641
 10
1.20967818552546
 20
0.6289830982923065
 42
-0.1778486047561683
 10
1.268017273657999
 20
0.7878086777488642
 42
-0.2102576563626568
 10
1.441318682523615
 20
0.8640553063573047
 42
-0.2102576563620196
 10
1.614620091388843
 20
0.7878086777492872
 42
-0.177848604756544
 97
        1
330
E35
 92
        7
 72
     1
 73
     1
 93
       24
 10
0.5490738051975086
 20
0.8348857622908665
 42
0.0
 10
0.6245714486635734
 20
0.8348857622908667
 42
-0.2838041811045305
 10
0.7595569654233895
 20
0.7515549929492219
 42
-0.1039363694933785
 10
0.7802005972377355
 20
0.673176804730122
 42
0.0
 10
0.7824301577289532
 20
0.6289830982925368
 42
0.0
 10
0.8922449118613824
 20
0.6289830982925366
 42
0.0
 10
0.8922449118613826
 20
0.937837094290039
 42
0.0
 10
0.4461224731983294
 20
0.9378370942900389
 42
0.0
 10
0.000000034535276
 20
0.9378370942900389
 42
0.0
 10
0.000000034535276
 20
0.6289830982925367
 42
0.0
 10
0.1098147886677054
 20
0.6289830982925367
 42
0.0
 10
0.1120443491589035
 20
0.6731768047302955
 42
-0.1039363694936737
 10
0.1326879809734473
 20
0.7515549929495761
 42
-0.2838041811041354
 10
0.2676734977332612
 20
0.8348857622908667
 42
0.0
 10
0.34317114119915
 20
0.8348857622908667
 42
0.0
 10
0.34317114119915
 20
0.2652217252288054
 42
-0.4142135623730833
 10
0.295127186266205
 20
0.2171777702958622
 42
0.0
 10
0.171585587867213
 20
0.2171777702958621
 42
0.0
 10
0.171585587867213
 20
0.1142264382966971
 42
0.0
 10
0.4461224731983294
 20
0.1142264382966971
 42
0.0
 10
0.7206593585294458
 20
0.1142264382966971
 42
0.0
 10
0.7206593585294457
 20
0.2171777702958622
 42
0.0
 10
0.597117760130459
 20
0.2171777702958622
 42
-0.4142135623731271
 10
0.5490738051975086
 20
0.2652217252288072
 42
0.0
 97
        1
330
E35
 75
     0
 76
     1
 47
0.2328892723695521
 98
        6
 10
3.664643573172298
 20
0.8254197374172527
 10
3.664643573172298
 20
0.8254197374172527
 10
2.418180602075903
 20
0.8150410656279873
 10
1.732626542621661
 20
0.7839066878773551
 10
1.732626542621661
 20
0.7839066878773551
 10
0.4965522634229079
 20
0.7527723101268045
1001
ACAD
1010
0.0
1020
0.0
1030
0.0
  0
INSERT
  5
E35
102
{ACAD_REACTORS
330
E34
102
}
330
E33
100
AcDbEntity
  8
biaozhu
 62
     7
100
AcDbBlockReference
  2
d
 10
-195.3445342935464
 20
-40.59588421047936
 30
0.0
 41
0.0217341700887133
 42
0.0217341700887133
 43
0.0217341700887902
  0
MTEXT
  5
E36
330
E33
100
AcDbEntity
  8
0
100
AcDbMText
 10
3.931561721859562
 20
0.3597693098304049
 30
0.0
 40
0.2715540300639768
 41
0.4073310450959652
 71
     1
 72
     5
  1
{\fArial|b0|i0|c0|p34;®}
 73
     1
 44
1.0
1001
ACAD
1000
MTEXTBEGIN
1070
    73
1070
     1
1070
    44
1040
1.0
1070
    74
1070
     0
1000
MTEXTEND
  0
ENDBLK
  5
E3A
330
E33
100
AcDbEntity
  8
0
 62
     1
100
AcDbBlockEnd
  0
BLOCK
  5
133C
330
1339
100
AcDbEntity
  8
0
 62
     1
370
   100
100
AcDbBlockBegin
  2
A$C1A094D26
 70
     0
 10
0.0
 20
0.0
 30
0.0
  3
A$C1A094D26
  1

  0
INSERT
  5
133D
330
1339
100
AcDbEntity
  8
0
 62
     1
370
    50
100
AcDbBlockReference
  2
A$C03B71B66
 10
-0.0000001169030384
 20
0.0
 30
0.0
  0
ENDBLK
  5
133E
330
1339
100
AcDbEntity
  8
0
 62
     1
370
   100
100
AcDbBlockEnd
  0
BLOCK
  5
1342
330
133F
100
AcDbEntity
  8
0
100
AcDbBlockBegin
  2
A$C032810D5
 70
     0
 10
0.0
 20
0.0
 30
0.0
  3
A$C032810D5
  1

  0
LINE
  5
1343
330
133F
100
AcDbEntity
  8
FORMAT
370
     0
100
AcDbLine
 10
0.0723911208324069
 20
1.506601062565771
 30
0.0
 11
1.072389120832468
 21
1.506601062565771
 31
0.0
  0
LINE
  5
1344
330
133F
100
AcDbEntity
  8
FORMAT
370
    15
100
AcDbLine
 10
0.0723911208324069
 20
1.593800752910143
 30
0.0
 11
0.0723911208324069
 21
1.386934992536178
 31
0.0
  0
LINE
  5
1345
330
133F
100
AcDbEntity
  8
FORMAT
370
     0
100
AcDbLine
 10
1.072389120832468
 20
1.506601062565771
 30
0.0
 11
2.07238712083253
 21
1.506601062565771
 31
0.0
  0
LINE
  5
1346
330
133F
100
AcDbEntity
  8
FORMAT
370
     0
100
AcDbLine
 10
2.07238712083253
 20
1.506601062565771
 30
0.0
 11
3.072385120832606
 21
1.506601062565771
 31
0.0
  0
LINE
  5
1347
330
133F
100
AcDbEntity
  8
FORMAT
370
    15
100
AcDbLine
 10
1.072389120832468
 20
1.593800752910143
 30
0.0
 11
1.072389120832468
 21
1.386934992536178
 31
0.0
  0
LINE
  5
1348
330
133F
100
AcDbEntity
  8
FORMAT
370
    15
100
AcDbLine
 10
2.07238712083253
 20
1.386934992536178
 30
0.0
 11
2.07238712083253
 21
1.593800752910143
 31
0.0
  0
LINE
  5
1349
330
133F
100
AcDbEntity
  8
FORMAT
370
    15
100
AcDbLine
 10
3.072385120832606
 20
1.593800752910143
 30
0.0
 11
3.072385120832606
 21
1.386934992536178
 31
0.0
  0
TEXT
  5
134A
330
133F
100
AcDbEntity
  8
FORMAT
 62
     0
100
AcDbText
 10
-0.0000001085305144
 20
0.7777761627971814
 30
0.0
 40
0.2916660833320499
  1
0      1      2      3
 41
0.5168000000000001
  7
SLDTEXTSTYLE1
100
AcDbText
  0
MTEXT
  5
134B
330
133F
100
AcDbEntity
  8
FORMAT
 62
     0
100
AcDbMText
 10
0.2452150216209503
 20
0.291666033306738
 30
0.0
 40
0.2916660833320499
 41
0.0
 71
     1
 72
     1
  1
SCALE: 1" = 1"
  7
SLDTEXTSTYLE2
 73
     1
 44
1.0
1001
ACAD
1000
MTEXTBEGIN
1070
    73
1070
     1
1070
    44
1040
1.0
1070
    74
1070
     0
1000
MTEXTEND
  0
ENDBLK
  5
134C
330
133F
100
AcDbEntity
  8
0
100
AcDbBlockEnd
  0
ENDSEC
  0
SECTION
  2
ENTITIES
  0
LWPOLYLINE
  5
A36
330
1F
100
AcDbEntity
  8
0
  6
Continuous
 62
     7
100
AcDbPolyline
 90
        4
 70
     1
 43
0.0
 10
10.90645511160061
 20
34.94983830319068
 10
45.88145511160059
 20
34.94983830319068
 10
45.88145511160059
 20
11.89983830319063
 10
10.90645511160061
 20
11.89983830319063
  0
MTEXT
  5
A9D
330
1F
100
AcDbEntity
  8
0
  6
Continuous
 62
     7
100
AcDbMText
 10
13.01618725781452
 20
32.57440706027658
 30
0.0
 40
0.19685
 41
0.0
 71
     7
 72
     1
  1
RIM OF LAVATORY\PBORDE DEL LAVABO\PREBORD DE LAVABO
  7
BLACK
 73
     1
 44
1.0
1001
ACAD
1000
MTEXTBEGIN
1070
    73
1070
     1
1070
    44
1040
1.0
1070
    74
1070
     0
1000
MTEXTEND
  0
MTEXT
  5
AA0
330
1F
100
AcDbEntity
  8
0
  6
Continuous
 62
     7
100
AcDbMText
 10
16.67708893339929
 20
26.38704282033084
 30
0.0
 40
0.19685
 41
5.792612611977559
 71
     6
 72
     5
  1
CUT ALONG THIS LINE\PCORTE A LO LARGO DE ESTA LINEA\PDECOUPER AU LONG DE CETTE LIGNE
  7
Arial Reguler
 73
     1
 44
1.0
1001
ACAD
1000
MTEXTBEGIN
1070
    73
1070
     1
1070
    44
1040
1.0
1070
    74
1070
     0
1000
MTEXTEND
1000
ACAD_MTEXT_DEFINED_HEIGHT_BEGIN
1070
    46
1040
1.895578545603916
1000
ACAD_MTEXT_DEFINED_HEIGHT_END
  0
LEADER
  5
AAC
330
1F
100
AcDbEntity
  8
0
100
AcDbLeader
  3
COPY_OF_STANDARD
 76
     3
 10
22.56102385307804
 20
23.51847190776016
 30
0.0
 10
18.42449417625579
 20
26.87795503236718
 30
0.0
 10
16.93754006558214
 20
26.87795503236718
 30
0.0
1001
ACAD
1000
DSTYLE
1002
{
1070
    77
1070
     0
1002
}
  0
HATCH
  5
112F
330
1F
100
AcDbEntity
  8
0
100
AcDbHatch
 10
0.0
 20
0.0
 30
0.0
210
0.0
220
0.0
230
1.0
  2
ANSI31
 70
     0
 71
     0
 91
        3
 92
        7
 72
     1
 73
     1
 93
        2
 10
42.63780177331514
 20
32.57194627404621
 42
1.0
 10
43.03164477331515
 20
32.57194627404621
 42
0.0
 97
        0
 92
        7
 72
     1
 73
     1
 93
        3
 10
42.83472327331529
 20
32.57194627404607
 42
0.0
 10
42.83472327331529
 20
32.76886777404622
 42
0.4142135623733081
 10
42.63780177331514
 20
32.57194627404621
 42
0.0
 97
        0
 92
        7
 72
     1
 73
     1
 93
        3
 10
43.03164477331529
 20
32.57194627404621
 42
0.4142135623730951
 10
42.83472327331529
 20
32.76886777404622
 42
0.0
 10
42.83472327331529
 20
32.57194627404621
 42
0.0
 97
        0
 75
     0
 76
     1
 52
0.0
 41
0.01969215
 77
     0
 78
     1
 53
45.0
 43
89.05172864864431
 44
25.59413867797144
 45
-0.044210137643628
 46
0.044210137643628
 79
     0
 47
0.0705504920957779
 98
        3
 10
42.91646287464061
 20
32.49611425828635
 10
42.74966769815222
 20
32.64337926671888
 10
42.93314289253967
 20
32.62948659352006
  0
HATCH
  5
1130
330
1F
100
AcDbEntity
  8
0
100
AcDbHatch
 10
0.0
 20
0.0
 30
0.0
210
0.0
220
0.0
230
1.0
  2
ANSI31
 70
     0
 71
     0
 91
        3
 92
        7
 72
     1
 73
     1
 93
        3
 10
43.03164477331515
 20
16.66068907404621
 42
0.0
 10
42.83472327331529
 20
16.66068907404621
 42
0.0
 10
42.83472327331529
 20
16.46376757404621
 42
0.414213562372882
 97
        0
 92
        7
 72
     1
 73
     1
 93
        3
 10
42.83472327331529
 20
16.66068907404614
 42
0.0
 10
42.63780177331514
 20
16.66068907404621
 42
0.4142135623733081
 10
42.83472327331529
 20
16.46376757404621
 42
0.0
 97
        0
 92
        7
 72
     1
 73
     1
 93
        2
 10
43.03164477331529
 20
16.66068907404621
 42
1.0
 10
42.63780177331514
 20
16.66068907404621
 42
0.0
 97
        0
 75
     0
 76
     1
 52
0.0
 41
0.01969215
 77
     0
 78
     1
 53
45.0
 43
89.05172864864431
 44
25.59413867797144
 45
-0.044210137643628
 46
0.044210137643628
 79
     0
 47
0.0632384257507579
 98
        3
 10
42.92279271048426
 20
16.55307914854224
 10
42.76331786575414
 20
16.56553311271798
 10
42.73341622814854
 20
16.72244036684039
  0
HATCH
  5
1131
330
1F
100
AcDbEntity
  8
0
100
AcDbHatch
 10
0.0
 20
0.0
 30
0.0
210
0.0
220
0.0
230
1.0
  2
ANSI31
 70
     0
 71
     0
 91
        3
 92
        7
 72
     1
 73
     1
 93
        3
 10
18.41645727331514
 20
16.66068907404621
 42
0.0
 10
18.21953577331514
 20
16.66068907404621
 42
0.4142135623730951
 10
18.41645727331514
 20
16.46376757404621
 42
0.0
 97
        0
 92
        7
 72
     1
 73
     1
 93
        2
 10
18.65502573221165
 20
16.66068907404621
 42
0.9043675794453895
 10
18.21953577331514
 20
16.66068907404621
 42
0.0
 97
        0
 92
        7
 72
     1
 73
     1
 93
        3
 10
18.41645727331514
 20
16.46376757404621
 42
0.4142135623730951
 10
18.61337877331514
 20
16.66068907404621
 42
0.0
 10
18.41645727331514
 20
16.66068907404629
 42
0.0
 97
        0
 75
     0
 76
     1
 52
0.0
 41
0.01969215
 77
     0
 78
     1
 53
45.0
 43
89.05172864864431
 44
25.59413867797144
 45
-0.044210137643628
 46
0.044210137643628
 79
     0
 47
0.1450493524025709
 98
        3
 10
18.37515737515289
 20
16.5937327004134
 10
18.51232771929091
 20
16.70227394237486
 10
18.48375007790773
 20
16.5765951370492
  0
HATCH
  5
1132
330
1F
100
AcDbEntity
  8
0
100
AcDbHatch
 10
0.0
 20
0.0
 30
0.0
210
0.0
220
0.0
230
1.0
  2
ANSI31
 70
     0
 71
     0
 91
        3
 92
        7
 72
     1
 73
     1
 93
        2
 10
18.21953577331514
 20
32.57194627404621
 42
1.0
 10
18.61337877331514
 20
32.57194627404621
 42
0.0
 97
        0
 92
        7
 72
     1
 73
     1
 93
        3
 10
18.41645727331514
 20
32.57194627404621
 42
0.0
 10
18.41645727331514
 20
32.76886777404622
 42
0.4142135623730951
 10
18.21953577331514
 20
32.57194627404621
 42
0.0
 97
        0
 92
        7
 72
     1
 73
     1
 93
        3
 10
18.41645727331514
 20
32.76886777404622
 42
0.0
 10
18.41645727331514
 20
32.57194627404628
 42
0.0
 10
18.61337877331514
 20
32.57194627404621
 42
0.4142135623730951
 97
        0
 75
     0
 76
     1
 52
0.0
 41
0.01969215
 77
     0
 78
     1
 53
45.0
 43
89.05172864864431
 44
25.59413867797144
 45
-0.044210137643628
 46
0.044210137643628
 79
     0
 47
0.0812774677234926
 98
        3
 10
18.30986968737807
 20
32.53440262597391
 10
18.3450989924024
 20
32.630434226166
 10
18.51803891206356
 20
32.65924292673736
  0
LINE
  5
1133
330
1F
100
AcDbEntity
  8
0
  6
DASHED
 62
     7
 48
0.04
100
AcDbLine
 10
22.61448966172287
 20
16.46376757404621
 30
0.0
 11
19.59798627331514
 21
16.46376757404621
 31
0.0
  0
CIRCLE
  5
1134
330
1F
100
AcDbEntity
  8
0
  6
AM_ISO02W050
 48
2.0
100
AcDbCircle
 10
42.83472327331515
 20
16.66068907404621
 30
0.0
 40
0.1969215
  0
CIRCLE
  5
1135
330
1F
100
AcDbEntity
  8
0
  6
AM_ISO02W050
 48
2.0
100
AcDbCircle
 10
42.83472327331515
 20
32.57194627404621
 30
0.0
 40
0.1969215
  0
CIRCLE
  5
1136
330
1F
100
AcDbEntity
  8
0
  6
AM_ISO02W050
 48
2.0
100
AcDbCircle
 10
18.41645727331514
 20
16.66068907404621
 30
0.0
 40
0.1969215
  0
CIRCLE
  5
1137
330
1F
100
AcDbEntity
  8
0
  6
AM_ISO02W050
 48
2.0
100
AcDbCircle
 10
18.41645727331514
 20
32.57194627404621
 30
0.0
 40
0.1969215
  0
LINE
  5
1138
330
1F
100
AcDbEntity
  8
0
  6
Continuous
 48
2.0
100
AcDbLine
 10
41.45627277331516
 20
16.38499897404621
 30
0.0
 11
43.11041337331514
 21
18.03913957404622
 31
0.0
  0
LINE
  5
1139
330
1F
100
AcDbEntity
  8
0
  6
Continuous
 48
2.0
100
AcDbLine
 10
22.61448966172287
 20
16.38499897404621
 30
0.0
 11
41.45627277331516
 21
16.38499897404621
 31
0.0
  0
LINE
  5
113A
330
1F
100
AcDbEntity
  8
0
  6
Continuous
 48
2.0
100
AcDbLine
 10
43.11041337331514
 20
31.19349577404622
 30
0.0
 11
43.11041337331514
 21
18.03913957404622
 31
0.0
  0
LINE
  5
113B
330
1F
100
AcDbEntity
  8
0
  6
Continuous
 48
2.0
100
AcDbLine
 10
43.11041337331514
 20
31.19349577404622
 30
0.0
 11
41.45627277331516
 21
32.84763637404622
 31
0.0
  0
LINE
  5
113C
330
1F
100
AcDbEntity
  8
0
100
AcDbLine
 10
43.42548777331515
 20
33.16271077404622
 30
0.0
 11
43.11041337331514
 21
33.16271077404622
 31
0.0
  0
LINE
  5
113D
330
1F
100
AcDbEntity
  8
0
  6
Continuous
 48
2.0
100
AcDbLine
 10
22.61448966172287
 20
32.84763637404622
 30
0.0
 11
41.45627277331516
 21
32.84763637404622
 31
0.0
  0
LINE
  5
113E
330
1F
100
AcDbEntity
  8
0
  6
Continuous
 48
2.0
100
AcDbLine
 10
22.61448966172287
 20
16.38499897404621
 30
0.0
 11
22.61448966172287
 21
32.84763637404622
 31
0.0
  0
LINE
  5
1140
330
1F
100
AcDbEntity
  8
0
  6
DASHED
 62
     7
 48
0.04
100
AcDbLine
 10
18.21953577331514
 20
31.39041727404622
 30
0.0
 11
19.59798627331514
 21
32.76886777404622
 31
0.0
  0
LINE
  5
1141
330
1F
100
AcDbEntity
  8
0
  6
DASHED
 62
     7
 48
0.04
100
AcDbLine
 10
18.21953577331514
 20
17.84221807404621
 30
0.0
 11
19.59798627331514
 21
16.46376757404621
 31
0.0
  0
LINE
  5
1142
330
1F
100
AcDbEntity
  8
0
  6
DASHED
 62
     7
 48
0.04
100
AcDbLine
 10
18.21953577331514
 20
17.84221807404621
 30
0.0
 11
18.21953577331514
 21
31.39041727404622
 31
0.0
  0
LINE
  5
1143
330
1F
100
AcDbEntity
  8
0
100
AcDbLine
 10
42.83472327331529
 20
16.46376757404621
 30
0.0
 11
42.83472327331529
 21
16.8444024501713
 31
0.0
  0
LINE
  5
1144
330
1F
100
AcDbEntity
  8
0
100
AcDbLine
 10
43.03164477331529
 20
16.66068907404621
 30
0.0
 11
42.59615481441864
 21
16.66068907404621
 31
0.0
  0
LINE
  5
1145
330
1F
100
AcDbEntity
  8
0
100
AcDbLine
 10
18.41645727331514
 20
16.46376757404621
 30
0.0
 11
18.41645727331514
 21
16.8444024501713
 31
0.0
  0
LINE
  5
1146
330
1F
100
AcDbEntity
  8
0
100
AcDbLine
 10
18.21953577331514
 20
16.66068907404621
 30
0.0
 11
18.65502573221165
 21
16.66068907404621
 31
0.0
  0
LINE
  5
1147
330
1F
100
AcDbEntity
  8
0
100
AcDbLine
 10
43.03164477331529
 20
32.57194627404621
 30
0.0
 11
42.59615481441864
 21
32.57194627404621
 31
0.0
  0
LINE
  5
1148
330
1F
100
AcDbEntity
  8
0
100
AcDbLine
 10
42.83472327331529
 20
32.76886777404622
 30
0.0
 11
42.83472327331529
 21
32.38823289792106
 31
0.0
  0
LINE
  5
1149
330
1F
100
AcDbEntity
  8
0
100
AcDbLine
 10
18.41645727331514
 20
32.76886777404622
 30
0.0
 11
18.41645727331514
 21
32.38823289792106
 31
0.0
  0
LINE
  5
114A
330
1F
100
AcDbEntity
  8
0
100
AcDbLine
 10
18.21953577331514
 20
32.57194627404621
 30
0.0
 11
18.65502573221165
 21
32.57194627404621
 31
0.0
  0
LINE
  5
114B
330
1F
100
AcDbEntity
  8
0
  6
DASHED
 62
     7
 48
0.04
100
AcDbLine
 10
19.59798627331514
 20
32.76886777404622
 30
0.0
 11
22.61448966172287
 21
32.76886777404622
 31
0.0
  0
LINE
  5
114D
330
1F
100
AcDbEntity
  8
0
  6
DASHED
 62
     7
 48
0.04
100
AcDbLine
 10
17.82569277331515
 20
33.16271077404622
 30
0.0
 11
43.42548777331515
 21
33.16271077404622
 31
0.0
  0
LINE
  5
114E
330
1F
100
AcDbEntity
  8
0
  6
DASHED
 62
     7
 48
0.04
100
AcDbLine
 10
43.42548777331515
 20
33.16271077404622
 30
0.0
 11
43.42548777331515
 21
16.06992457404621
 31
0.0
  0
LINE
  5
114F
330
1F
100
AcDbEntity
  8
0
  6
DASHED
 62
     7
 48
0.04
100
AcDbLine
 10
43.42548777331515
 20
16.06992457404621
 30
0.0
 11
17.82569277331515
 21
16.06992457404621
 31
0.0
  0
LINE
  5
1150
330
1F
100
AcDbEntity
  8
0
  6
DASHED
 62
     7
 48
0.04
100
AcDbLine
 10
17.82569277331515
 20
16.06992457404621
 30
0.0
 11
17.82569277331515
 21
33.16271077404622
 31
0.0
  0
LEADER
  5
12D7
330
1F
100
AcDbEntity
  8
0
100
AcDbLeader
  3
COPY_OF_STANDARD
 76
     3
 10
17.8285873851853
 20
31.80974038714476
 30
0.0
 10
16.71568185845353
 20
33.38499529706837
 30
0.0
 10
15.92737483605378
 20
33.38499529706837
 30
0.0
1001
ACAD
1000
DSTYLE
1002
{
1070
   147
1040
0.05
1070
    77
1070
     0
1002
}
  0
TEXT
  5
1365
330
1F
100
AcDbEntity
  8
0
  6
Continuous
 62
     7
100
AcDbText
 10
31.91549739715447
 20
7.379140547263482
 30
0.0
 40
0.5
  1
70# OFFSET UNCOATED SHEET
  7
BLACK
100
AcDbText
  0
TEXT
  5
1366
330
1F
100
AcDbEntity
  8
0
  6
Continuous
 62
     7
100
AcDbText
 10
31.91549726816106
 20
6.347670389574311
 30
0.0
 40
0.5
  1
BRIGHTNESS FACTOR- 86%%% OR HIGHER
  7
BLACK
100
AcDbText
  0
TEXT
  5
1367
330
1F
100
AcDbEntity
  8
0
  6
Continuous
 62
     7
100
AcDbText
 10
30.44995173681707
 20
10.14842033816155
 30
0.0
 40
0.5
  1
PAPER SIZE:   23" X 35"
  7
BLACK
100
AcDbText
  0
TEXT
  5
1368
330
1F
100
AcDbEntity
  8
0
  6
Continuous
 62
     7
100
AcDbText
 10
39.02435181385598
 20
10.16493982684694
 30
0.0
 40
0.5
  1
25" X 38"
  7
BLACK
100
AcDbText
  0
TEXT
  5
1369
330
1F
100
AcDbEntity
  8
0
  6
Continuous
 62
     7
100
AcDbText
 10
42.65588586066278
 20
10.18145931553233
 30
0.0
 40
0.5
  1
26" X 40"
  7
BLACK
100
AcDbText
  0
TEXT
  5
136A
330
1F
100
AcDbEntity
  8
0
  6
Continuous
 62
     7
100
AcDbText
 10
30.44789574040939
 20
8.249340743204889
 30
0.0
 40
0.5
  1
PAPER SPEC:
  7
BLACK
100
AcDbText
  0
ELLIPSE
  5
136B
330
1F
100
AcDbEntity
  8
0
  6
Continuous
 62
     7
100
AcDbEllipse
 10
36.63127851171018
 20
10.37184498674595
 30
0.0
 11
-1.726156645428801
 21
0.0689933587700011
 31
0.0
210
0.0
220
0.0
230
0.9999999999999998
 40
0.3574306411524941
 41
0.0
 42
6.283185307179586
  0
MTEXT
  5
136C
330
1F
100
AcDbEntity
  8
0
  6
Continuous
 62
     7
100
AcDbMText
 10
41.03157436652196
 20
13.12895041988966
 30
0.0
 40
0.19685
 41
1.63796705892308
 71
     4
 72
     5
  1
FLT142\P0GU154\PFEB 2009
  7
Arial Reguler
 73
     1
 44
1.0
1001
ACAD
1000
MTEXTBEGIN
1070
    73
1070
     1
1070
    44
1040
1.0
1070
    74
1070
     0
1000
MTEXTEND
1000
ACAD_MTEXT_DEFINED_HEIGHT_BEGIN
1070
    46
1040
0.8013427615411998
1000
ACAD_MTEXT_DEFINED_HEIGHT_END
  0
OLE2FRAME
  5
136D
330
1F
100
AcDbEntity
  8
0
 62
     1
100
AcDbOle2Frame
 70
     2
  1
OLE
1001
ACAD
1000
OLEBEGIN
1070
    70
1070
     1
1070
    71
1070
     1
1070
    40
1040
0.0
1070
    41
1040
0.7218694444658241
1070
    42
1040
0.6342610851067434
1070
    72
1070
     0
1070
     3
1000

1070
    90
1071
        0
1070
    43
1040
0.0
1070
     4
1000

1070
    91
1071
        0
1070
    44
1040
0.0
1000
OLEEND
  0
INSERT
  5
136E
330
1F
100
AcDbEntity
  8
0
  6
ACAD_ISO14W100
 62
     1
100
AcDbBlockReference
  2
A$C1A094D26
 10
37.51094204602106
 20
12.7008235608676
 30
0.0
  0
INSERT
  5
136F
330
1F
100
AcDbEntity
  8
0
100
AcDbBlockReference
  2
A$C032810D5
 10
11.63563181454718
 20
12.5356844915286
 30
0.0
  0
TEXT
  5
1370
330
1F
100
AcDbEntity
  8
0
  6
Continuous
 62
     7
100
AcDbText
 10
30.47431747965954
 20
9.139652868495559
 30
0.0
 40
0.5
  1
LINE WEIGHT: 1.00mm
  7
BLACK
100
AcDbText
  0
MTEXT
  5
1371
330
1F
100
AcDbEntity
  8
0
  6
Continuous
 62
     7
100
AcDbMText
 10
11.43182330404323
 20
10.6970392898256
 30
0.0
 40
0.4445659616281262
 41
0.0
 71
     1
 72
     1
  1
TEMPLATE PART NUMBER VISIBLE AFTER FINAL FOLD
  7
BLACK
 73
     1
 44
1.0
1001
ACAD
1000
MTEXTBEGIN
1070
    73
1070
     1
1070
    44
1040
1.0
1070
    74
1070
     0
1000
MTEXTEND
  0
INSERT
  5
1372
330
1F
100
AcDbEntity
  8
0
 62
     1
100
AcDbBlockReference
  2
A$C07477C80
 10
39.60328780762092
 20
13.96407180041755
 30
0.0
  0
VIEWPORT
  5
B6D
102
{ACAD_XDICTIONARY
360
13A5
102
}
330
58
100
AcDbEntity
 67
     1
  8
0
 62
     1
370
    50
100
AcDbViewport
 10
5.249999639556163
 20
3.999999883606677
 30
0.0
 40
15.77846233060116
 41
8.992999745766947
 68
     1
 69
     1
 12
5.249999639556163
 22
3.999999883606677
 13
0.0
 23
0.0
 14
0.5
 24
0.5
 15
0.5
 25
0.5
 16
0.0
 26
0.0
 36
1.0
 17
0.0
 27
0.0
 37
0.0
 42
50.0
 43
0.0
 44
0.0
 45
8.992999745766947
 50
0.0
 51
0.0
 72
  1000
 90
    32800
  1

281
     0
 71
     1
 74
     0
110
0.0
120
0.0
130
0.0
111
1.0
121
0.0
131
0.0
112
0.0
122
1.0
132
0.0
 79
     0
146
0.0
  0
VIEWPORT
  5
B6F
102
{ACAD_XDICTIONARY
360
13A7
102
}
330
58
100
AcDbEntity
 67
     1
  8
0
 62
     1
370
    50
100
AcDbViewport
 10
5.24999976158142
 20
3.99999976158142
 30
0.0
 40
8.399999618530271
 41
6.399999618530272
 68
     2
 69
     2
 12
28.39395511160061
 22
21.53341556171617
 13
0.0
 23
0.0
 14
0.5
 24
0.5
 15
0.5
 25
0.5
 16
0.0
 26
0.0
 36
1.0
 17
0.0
 27
0.0
 37
0.0
 42
50.0
 43
0.0
 44
0.0
 45
30.21881138942081
 50
0.0
 51
0.0
 72
  1000
 90
    32864
  1

281
     0
 71
     1
 74
     0
110
0.0
120
0.0
130
0.0
111
1.0
121
0.0
131
0.0
112
0.0
122
1.0
132
0.0
 79
     0
146
0.0
  0
ENDSEC
  0
SECTION
  2
OBJECTS
  0
DICTIONARY
  5
C
330
0
100
AcDbDictionary
281
     1
  3
ACAD_COLOR
350
73
  3
ACAD_GROUP
350
D
  3
ACAD_LAYOUT
350
1A
  3
ACAD_MATERIAL
350
72
  3
ACAD_MLINESTYLE
350
17
  3
ACAD_PLOTSETTINGS
350
19
  3
ACAD_PLOTSTYLENAME
350
E
  3
ACAD_TABLESTYLE
350
86
  3
ACAD_VISUALSTYLE
350
1382
  3
AcDbVariableDictionary
350
66
  3
ASE_INDEX_DICTIONARY
350
C73
  3
DWGPROPS
350
139D
  0
DICTIONARY
  5
97
330
2
100
AcDbDictionary
280
     1
281
     1
  3
ACAD_LAYERSTATES
360
98
  0
DICTIONARY
  5
298
330
1F
100
AcDbDictionary
280
     1
281
     1
  3
ACAD_SORTENTS
360
299
  0
DICTIONARY
  5
DB8
330
DB7
100
AcDbDictionary
280
     1
281
     1
  0
DICTIONARY
  5
E37
330
E33
100
AcDbDictionary
280
     1
281
     1
  3
ACAD_SORTENTS
360
1360
  0
DICTIONARY
  5
133A
330
1339
100
AcDbDictionary
280
     1
281
     1
  3
ACAD_SORTENTS
360
133B
  0
DICTIONARY
  5
1340
330
133F
100
AcDbDictionary
280
     1
281
     1
  3
ACAD_SORTENTS
360
1341
  0
DICTIONARY
  5
13A5
330
B6D
100
AcDbDictionary
280
     1
281
     1
  3
ACAD_XREC_ROUNDTRIP
360
13A6
  0
DICTIONARY
  5
13A7
330
B6F
100
AcDbDictionary
280
     1
281
     1
  3
ACAD_XREC_ROUNDTRIP
360
13A8
  0
DICTIONARY
  5
73
102
{ACAD_REACTORS
330
C
102
}
330
C
100
AcDbDictionary
281
     1
  3
DIC COLOR GUIDE(R)$DIC 181
350
96
  0
DICTIONARY
  5
D
102
{ACAD_REACTORS
330
C
102
}
330
C
100
AcDbDictionary
281
     1
  0
DICTIONARY
  5
1A
102
{ACAD_REACTORS
330
C
102
}
330
C
100
AcDbDictionary
281
     1
  3
Layout1
350
59
  3
Layout2
350
5E
  3
Model
350
22
  0
DICTIONARY
  5
72
102
{ACAD_REACTORS
330
C
102
}
330
C
100
AcDbDictionary
281
     1
  3
ByBlock
350
1381
  3
ByLayer
350
1380
  3
Global
350
E24
  0
DICTIONARY
  5
17
102
{ACAD_REACTORS
330
C
102
}
330
C
100
AcDbDictionary
281
     1
  3
Standard
350
18
  0
DICTIONARY
  5
19
102
{ACAD_REACTORS
330
C
102
}
330
C
100
AcDbDictionary
281
     1
  0
ACDBDICTIONARYWDFLT
  5
E
102
{ACAD_REACTORS
330
C
102
}
330
C
100
AcDbDictionary
281
     1
  3
Normal
350
F
100
AcDbDictionaryWithDefault
340
F
  0
DICTIONARY
  5
86
102
{ACAD_REACTORS
330
C
102
}
330
C
100
AcDbDictionary
281
     1
  3
Standard
350
87
  0
DICTIONARY
  5
1382
102
{ACAD_REACTORS
330
C
102
}
330
C
100
AcDbDictionary
281
     1
  3
2dWireframe
350
1388
  3
3D Hidden
350
138A
  3
3dWireframe
350
1389
  3
Basic
350
1387
  3
Brighten
350
138E
  3
ColorChange
350
1392
  3
Conceptual
350
138B
  3
Dim
350
138D
  3
Facepattern
350
1391
  3
Flat
350
1383
  3
FlatWithEdges
350
1384
  3
Gouraud
350
1385
  3
GouraudWithEdges
350
1386
  3
Linepattern
350
1390
  3
Realistic
350
138C
  3
Thicken
350
138F
  0
DICTIONARY
  5
66
102
{ACAD_REACTORS
330
C
102
}
330
C
100
AcDbDictionary
281
     1
  3
CTABLESTYLE
350
1A9
  3
DIMASSOC
350
67
  3
HIDETEXT
350
6B
  3
INDEXCTL
350
139C
  3
SORTENTS
350
139B
  0
DICTIONARY
  5
C73
102
{ACAD_REACTORS
330
C
102
}
330
C
100
AcDbDictionary
281
     1
  3
ASEBlockHierarchyIndexRecord
350
C75
1001
DCO15
1040
1637494043.459
  0
XRECORD
  5
139D
102
{ACAD_REACTORS
330
C
102
}
330
C
100
AcDbXrecord
280
     1
  1
DWGPROPS COOKIE
  2

  3

  4

  6

  7

  8
jgayle
  9

300
=
301
=
302
=
303
=
304
=
305
=
306
=
307
=
308
=
309
=
 40
0.3794630324074074
 41
2454207.379201667
 42
2454972.641986493
  1

 90
        0
  0
DICTIONARY
  5
98
102
{ACAD_REACTORS
330
97
102
}
330
97
100
AcDbDictionary
281
     1
  0
SORTENTSTABLE
  5
299
102
{ACAD_REACTORS
330
298
102
}
330
298
100
AcDbSortentsTable
330
1F
  0
SORTENTSTABLE
  5
1360
102
{ACAD_REACTORS
330
E37
102
}
330
E37
100
AcDbSortentsTable
330
E33
  0
SORTENTSTABLE
  5
133B
102
{ACAD_REACTORS
330
133A
102
}
330
133A
100
AcDbSortentsTable
330
1339
  0
SORTENTSTABLE
  5
1341
102
{ACAD_REACTORS
330
1340
102
}
330
1340
100
AcDbSortentsTable
330
133F
  0
XRECORD
  5
13A6
102
{ACAD_REACTORS
330
13A5
102
}
330
13A5
100
AcDbXrecord
280
     1
102
SHADEPLOT
 70
     0
  0
XRECORD
  5
13A8
102
{ACAD_REACTORS
330
13A7
102
}
330
13A7
100
AcDbXrecord
280
     1
102
SHADEPLOT
 70
     0
  0
DBCOLOR
  5
96
102
{ACAD_REACTORS
330
73
102
}
330
73
100
AcDbColor
  0
LAYOUT
  5
59
102
{ACAD_XDICTIONARY
360
B74
102
}
102
{ACAD_REACTORS
330
1A
102
}
330
1A
100
AcDbPlotSettings
  1

  2
none_device
  4
Letter_(8.50_x_11.00_Inches)
  6

 40
6.349999904632568
 41
6.349999904632568
 42
6.350006103515625
 43
6.350006103515625
 44
215.8999938964844
 45
279.3999938964844
 46
0.0
 47
0.0
 48
0.0
 49
0.0
140
0.0
141
0.0
142
1.0
143
1.0
 70
   688
 72
     0
 73
     1
 74
     5
  7

 75
    16
147
1.0
148
0.0
149
0.0
100
AcDbLayout
  1
Layout1
 70
     1
 71
     1
 10
-0.2500002402958907
 20
-0.2499999962453767
 11
10.74999951940821
 21
8.249999763458731
 12
0.0
 22
0.0
 32
0.0
 14
1.049999952316284
 24
0.7999999523162842
 34
0.0
 15
9.449999570846555
 25
7.199999570846556
 35
0.0
146
0.0
 13
0.0
 23
0.0
 33
0.0
 16
1.0
 26
0.0
 36
0.0
 17
0.0
 27
1.0
 37
0.0
 76
     0
330
58
331
B6D
1001
ACAD_PSEXT
1000
None
1000
None
1000
Not applicable
1000
The layout will not be plotted unless a new plotter configuration name is selected.
1070
     0
  0
LAYOUT
  5
5E
102
{ACAD_XDICTIONARY
360
13A1
102
}
102
{ACAD_REACTORS
330
1A
102
}
330
1A
100
AcDbPlotSettings
  1

  2
None
  4

  6

 40
0.0
 41
0.0
 42
0.0
 43
0.0
 44
0.0
 45
0.0
 46
0.0
 47
0.0
 48
0.0
 49
0.0
140
0.0
141
0.0
142
1.0
143
1.0
 70
   688
 72
     0
 73
     0
 74
     5
  7

 75
    16
147
1.0
148
0.0
149
0.0
100
AcDbLayout
  1
Layout2
 70
     1
 71
     2
 10
0.0
 20
0.0
 11
12.0
 21
9.0
 12
0.0
 22
0.0
 32
0.0
 14
0.0
 24
0.0
 34
0.0
 15
0.0
 25
0.0
 35
0.0
146
0.0
 13
0.0
 23
0.0
 33
0.0
 16
1.0
 26
0.0
 36
0.0
 17
0.0
 27
1.0
 37
0.0
 76
     0
330
5D
  0
LAYOUT
  5
22
102
{ACAD_XDICTIONARY
360
139E
102
}
102
{ACAD_REACTORS
330
1A
102
}
330
1A
100
AcDbPlotSettings
  1

  2
\\totosrv3\RD-03-HPDJ500
  4
User266
  6

 40
4.995333194732666
 41
16.97562789916992
 42
4.99530029296875
 43
16.9757080078125
 44
863.5576782226562
 45
1117.515258789062
 46
61.62741348266584
 47
97.5770022414588
 48
9.98427507403403
 49
11.46702168572005
140
48.95978612630916
141
36.08193053762352
142
1.0
143
1.0
 70
 11956
 72
     0
 73
     1
 74
     1
  7

 75
    16
147
1.0
148
-277.0146089975438
149
-157.4407684426399
100
AcDbLayout
  1
Model
 70
     1
 71
     0
 10
0.0
 20
0.0
 11
12.0
 21
9.0
 12
0.0
 22
0.0
 32
0.0
 14
0.0
 24
0.0
 34
0.0
 15
0.0
 25
0.0
 35
0.0
146
0.0
 13
0.0
 23
0.0
 33
0.0
 16
1.0
 26
0.0
 36
0.0
 17
0.0
 27
1.0
 37
0.0
 76
     0
330
1F
331
137E
1001
ACAD_PSEXT
1000
\\totosrv3\RD-03-HPDJ500
1000
HP DesignJet 500 42+HPGL2 Card
1000
R & D/Quality Engineering
1000
IP 172.16.4.69, HP DesignJet 500, S/N
1070
     0
  0
MATERIAL
  5
1381
102
{ACAD_XDICTIONARY
360
13AD
102
}
102
{ACAD_REACTORS
330
72
102
}
330
72
100
AcDbMaterial
  1
ByBlock
  0
MATERIAL
  5
1380
102
{ACAD_XDICTIONARY
360
13AB
102
}
102
{ACAD_REACTORS
330
72
102
}
330
72
100
AcDbMaterial
  1
ByLayer
  0
MATERIAL
  5
E24
102
{ACAD_XDICTIONARY
360
13A9
102
}
102
{ACAD_REACTORS
330
72
102
}
330
72
100
AcDbMaterial
  1
Global
  0
MLINESTYLE
  5
18
102
{ACAD_REACTORS
330
17
102
}
330
17
100
AcDbMlineStyle
  2
STANDARD
 70
     0
  3

 62
   256
 51
90.0
 52
90.0
 71
     2
 49
0.5
 62
   256
  6
BYLAYER
 49
-0.5
 62
   256
  6
BYLAYER
  0
ACDBPLACEHOLDER
  5
F
102
{ACAD_REACTORS
330
E
102
}
330
E
  0
TABLESTYLE
  5
87
102
{ACAD_XDICTIONARY
360
13A3
102
}
102
{ACAD_REACTORS
330
86
102
}
330
86
100
AcDbTableStyle
  3
Standard
 70
     0
 71
     0
 40
0.06
 41
0.06
280
     0
281
     0
  7
Standard
140
0.18
170
     2
 62
     0
 63
     7
283
     0
274
    -2
284
     1
 64
     0
275
    -2
285
     1
 65
     0
276
    -2
286
     1
 66
     0
277
    -2
287
     1
 67
     0
278
    -2
288
     1
 68
     0
279
    -2
289
     1
 69
     0
  7
Standard
140
0.25
170
     5
 62
     0
 63
     7
283
     0
274
    -2
284
     1
 64
     0
275
    -2
285
     1
 65
     0
276
    -2
286
     1
 66
     0
277
    -2
287
     1
 67
     0
278
    -2
288
     1
 68
     0
279
    -2
289
     1
 69
     0
  7
Standard
140
0.18
170
     5
 62
     0
 63
     7
283
     0
274
    -2
284
     1
 64
     0
275
    -2
285
     1
 65
     0
276
    -2
286
     1
 66
     0
277
    -2
287
     1
 67
     0
278
    -2
288
     1
 68
     0
279
    -2
289
     1
 69
     0
  0
VISUALSTYLE
  5
1388
102
{ACAD_REACTORS
330
1382
102
}
330
1382
100
AcDbVisualStyle
  2
2dWireframe
 70
     4
 71
     0
 72
     2
 73
     0
 90
        0
 40
-0.6
 41
-30.0
 62
     5
 63
     7
 74
     1
 91
        4
 64
     7
 65
   257
 75
     1
175
     1
 42
1.0
 92
        0
 66
   257
 43
1.0
 76
     1
 77
     6
 78
     2
 67
     7
 79
     5
170
     0
171
     0
290
     0
174
     0
 93
        1
 44
0.0
173
     0
291
     0
 45
0.0
1001
ACAD
1000
AcDbSavedByObjectVersion
1070
     0
  0
VISUALSTYLE
  5
138A
102
{ACAD_REACTORS
330
1382
102
}
330
1382
100
AcDbVisualStyle
  2
3D Hidden
 70
     6
 71
     1
 72
     2
 73
     2
 90
        0
 40
-0.6
 41
-30.0
 62
     5
 63
     7
 74
     2
 91
        2
 64
     7
 65
   257
 75
     2
175
     1
 42
40.0
 92
        0
 66
   257
 43
1.0
 76
     1
 77
     6
 78
     2
 67
     7
 79
     3
170
     0
171
     0
290
     0
174
     0
 93
        1
 44
0.0
173
     0
291
     0
 45
0.0
1001
ACAD
1000
AcDbSavedByObjectVersion
1070
     0
  0
VISUALSTYLE
  5
1389
102
{ACAD_REACTORS
330
1382
102
}
330
1382
100
AcDbVisualStyle
  2
3dWireframe
 70
     5
 71
     0
 72
     2
 73
     0
 90
        0
 40
-0.6
 41
-30.0
 62
     5
 63
     7
 74
     1
 91
        4
 64
     7
 65
   257
 75
     1
175
     1
 42
1.0
 92
        0
 66
   257
 43
1.0
 76
     1
 77
     6
 78
     2
 67
     7
 79
     5
170
     0
171
     0
290
     0
174
     0
 93
        1
 44
0.0
173
     0
291
     0
 45
0.0
1001
ACAD
1000
AcDbSavedByObjectVersion
1070
     0
  0
VISUALSTYLE
  5
1387
102
{ACAD_REACTORS
330
1382
102
}
330
1382
100
AcDbVisualStyle
  2
Basic
 70
     7
 71
     1
 72
     0
 73
     1
 90
        0
 40
-0.6
 41
-30.0
 62
     5
 63
     7
 74
     0
 91
        4
 64
     7
 65
   257
 75
     1
175
     1
 42
1.0
 92
        8
 66
     7
 43
1.0
 76
     1
 77
     6
 78
     2
 67
     7
 79
     5
170
     0
171
     0
290
     0
174
     0
 93
        1
 44
0.0
173
     0
291
     1
 45
0.0
1001
ACAD
1000
AcDbSavedByObjectVersion
1070
     0
  0
VISUALSTYLE
  5
138E
102
{ACAD_REACTORS
330
1382
102
}
330
1382
100
AcDbVisualStyle
  2
Brighten
 70
    12
 71
     2
 72
     2
 73
     0
 90
        0
 40
-0.6
 41
-30.0
 62
     5
 63
     7
 74
     1
 91
        4
 64
     7
 65
   257
 75
     1
175
     1
 42
1.0
 92
        8
 66
     7
 43
1.0
 76
     1
 77
     6
 78
     2
 67
     7
 79
     5
170
     0
171
     0
290
     0
174
     0
 93
        1
 44
50.0
173
     0
291
     1
 45
0.0
1001
ACAD
1000
AcDbSavedByObjectVersion
1070
     0
  0
VISUALSTYLE
  5
1392
102
{ACAD_REACTORS
330
1382
102
}
330
1382
100
AcDbVisualStyle
  2
ColorChange
 70
    16
 71
     2
 72
     2
 73
     3
 90
        0
 40
-0.6
 41
-30.0
 62
     5
 63
     8
 74
     1
 91
        4
 64
     7
 65
   257
 75
     1
175
     1
 42
1.0
 92
        8
 66
     8
 43
1.0
 76
     1
 77
     6
 78
     2
 67
     7
 79
     5
170
     0
171
     0
290
     0
174
     0
 93
        1
 44
0.0
173
     0
291
     1
 45
0.0
1001
ACAD
1000
AcDbSavedByObjectVersion
1070
     0
  0
VISUALSTYLE
  5
138B
102
{ACAD_REACTORS
330
1382
102
}
330
1382
100
AcDbVisualStyle
  2
Conceptual
 70
     9
 71
     3
 72
     2
 73
     0
 90
        0
 40
-0.6
 41
-30.0
 62
     5
 63
     7
 74
     2
 91
        2
 64
     7
 65
   257
 75
     1
175
     1
 42
40.0
 92
        8
 66
     7
 43
1.0
 76
     1
 77
     6
 78
     2
 67
     7
 79
     3
170
     0
171
     0
290
     0
174
     0
 93
        1
 44
0.0
173
     0
291
     0
 45
0.0
1001
ACAD
1000
AcDbSavedByObjectVersion
1070
     0
  0
VISUALSTYLE
  5
138D
102
{ACAD_REACTORS
330
1382
102
}
330
1382
100
AcDbVisualStyle
  2
Dim
 70
    11
 71
     2
 72
     2
 73
     0
 90
        0
 40
-0.6
 41
-30.0
 62
     5
 63
     7
 74
     1
 91
        4
 64
     7
 65
   257
 75
     1
175
     1
 42
1.0
 92
        8
 66
     7
 43
1.0
 76
     1
 77
     6
 78
     2
 67
     7
 79
     5
170
     0
171
     0
290
     0
174
     0
 93
        1
 44
-50.0
173
     0
291
     1
 45
0.0
1001
ACAD
1000
AcDbSavedByObjectVersion
1070
     0
  0
VISUALSTYLE
  5
1391
102
{ACAD_REACTORS
330
1382
102
}
330
1382
100
AcDbVisualStyle
  2
Facepattern
 70
    15
 71
     2
 72
     2
 73
     0
 90
        0
 40
-0.6
 41
-30.0
 62
     5
 63
     7
 74
     1
 91
        4
 64
     7
 65
   257
 75
     1
175
     1
 42
1.0
 92
        8
 66
     7
 43
1.0
 76
     1
 77
     6
 78
     2
 67
     7
 79
     5
170
     0
171
     0
290
     0
174
     0
 93
        1
 44
0.0
173
     0
291
     1
 45
0.0
1001
ACAD
1000
AcDbSavedByObjectVersion
1070
     0
  0
VISUALSTYLE
  5
1383
102
{ACAD_REACTORS
330
1382
102
}
330
1382
100
AcDbVisualStyle
  2
Flat
 70
     0
 71
     2
 72
     1
 73
     1
 90
        2
 40
-0.6
 41
30.0
 62
     5
 63
     7
 74
     0
 91
        4
 64
     7
 65
   257
 75
     1
175
     1
 42
1.0
 92
        8
 66
     7
 43
1.0
 76
     1
 77
     6
 78
     2
 67
     7
 79
     5
170
     0
171
     0
290
     0
174
     0
 93
       13
 44
0.0
173
     0
291
     1
 45
0.0
1001
ACAD
1000
AcDbSavedByObjectVersion
1070
     0
  0
VISUALSTYLE
  5
1384
102
{ACAD_REACTORS
330
1382
102
}
330
1382
100
AcDbVisualStyle
  2
FlatWithEdges
 70
     1
 71
     2
 72
     1
 73
     1
 90
        2
 40
-0.6
 41
30.0
 62
     5
 63
     7
 74
     1
 91
        4
 64
     7
 65
   257
 75
     1
175
     1
 42
1.0
 92
        0
 66
   257
 43
1.0
 76
     1
 77
     6
 78
     2
 67
     7
 79
     5
170
     0
171
     0
290
     0
174
     0
 93
       13
 44
0.0
173
     0
291
     1
 45
0.0
1001
ACAD
1000
AcDbSavedByObjectVersion
1070
     0
  0
VISUALSTYLE
  5
1385
102
{ACAD_REACTORS
330
1382
102
}
330
1382
100
AcDbVisualStyle
  2
Gouraud
 70
     2
 71
     2
 72
     2
 73
     1
 90
        2
 40
-0.6
 41
30.0
 62
     5
 63
     7
 74
     0
 91
        4
 64
     7
 65
   257
 75
     1
175
     1
 42
1.0
 92
        0
 66
     7
 43
1.0
 76
     1
 77
     6
 78
     2
 67
     7
 79
     5
170
     0
171
     0
290
     0
174
     0
 93
       13
 44
0.0
173
     0
291
     1
 45
0.0
1001
ACAD
1000
AcDbSavedByObjectVersion
1070
     0
  0
VISUALSTYLE
  5
1386
102
{ACAD_REACTORS
330
1382
102
}
330
1382
100
AcDbVisualStyle
  2
GouraudWithEdges
 70
     3
 71
     2
 72
     2
 73
     1
 90
        2
 40
-0.6
 41
30.0
 62
     5
 63
     7
 74
     1
 91
        4
 64
     7
 65
   257
 75
     1
175
     1
 42
1.0
 92
        0
 66
   257
 43
1.0
 76
     1
 77
     6
 78
     2
 67
     7
 79
     5
170
     0
171
     0
290
     0
174
     0
 93
       13
 44
0.0
173
     0
291
     1
 45
0.0
1001
ACAD
1000
AcDbSavedByObjectVersion
1070
     0
  0
VISUALSTYLE
  5
1390
102
{ACAD_REACTORS
330
1382
102
}
330
1382
100
AcDbVisualStyle
  2
Linepattern
 70
    14
 71
     2
 72
     2
 73
     0
 90
        0
 40
-0.6
 41
-30.0
 62
     5
 63
     7
 74
     1
 91
        4
 64
     7
 65
   257
 75
     7
175
     7
 42
1.0
 92
        8
 66
     7
 43
1.0
 76
     1
 77
     6
 78
     2
 67
     7
 79
     5
170
     0
171
     0
290
     0
174
     0
 93
        1
 44
0.0
173
     0
291
     1
 45
0.0
1001
ACAD
1000
AcDbSavedByObjectVersion
1070
     0
  0
VISUALSTYLE
  5
138C
102
{ACAD_REACTORS
330
1382
102
}
330
1382
100
AcDbVisualStyle
  2
Realistic
 70
     8
 71
     2
 72
     2
 73
     0
 90
        0
 40
-0.6
 41
-30.0
 62
     5
 63
     7
 74
     1
 91
        0
 64
     7
 65
   257
 75
     1
175
     1
 42
1.0
 92
        8
 66
     8
 43
1.0
 76
     1
 77
     6
 78
     2
 67
     7
 79
     5
170
     0
171
     0
290
     0
174
     0
 93
       13
 44
0.0
173
     0
291
     0
 45
0.0
1001
ACAD
1000
AcDbSavedByObjectVersion
1070
     0
  0
VISUALSTYLE
  5
138F
102
{ACAD_REACTORS
330
1382
102
}
330
1382
100
AcDbVisualStyle
  2
Thicken
 70
    13
 71
     2
 72
     2
 73
     0
 90
        0
 40
-0.6
 41
-30.0
 62
     5
 63
     7
 74
     1
 91
        4
 64
     7
 65
   257
 75
     1
175
     1
 42
1.0
 92
       12
 66
     7
 43
1.0
 76
     1
 77
     6
 78
     2
 67
     7
 79
     5
170
     0
171
     0
290
     0
174
     0
 93
        1
 44
0.0
173
     0
291
     1
 45
0.0
1001
ACAD
1000
AcDbSavedByObjectVersion
1070
     0
  0
DICTIONARYVAR
  5
1A9
102
{ACAD_REACTORS
330
66
102
}
330
66
100
DictionaryVariables
280
     0
  1
STANDARD
  0
DICTIONARYVAR
  5
67
102
{ACAD_REACTORS
330
66
102
}
330
66
100
DictionaryVariables
280
     0
  1
2
  0
DICTIONARYVAR
  5
6B
102
{ACAD_REACTORS
330
66
102
}
330
66
100
DictionaryVariables
280
     0
  1
1
  0
DICTIONARYVAR
  5
139C
102
{ACAD_REACTORS
330
66
102
}
330
66
100
DictionaryVariables
280
     0
  1
0
  0
DICTIONARYVAR
  5
139B
102
{ACAD_REACTORS
330
66
102
}
330
66
100
DictionaryVariables
280
     0
  1
127
  0
XRECORD
  5
C75
102
{ACAD_REACTORS
330
C73
102
}
330
C73
100
AcDbXrecord
280
     1
  0
DICTIONARY
  5
B74
330
59
100
AcDbDictionary
280
     1
281
     1
  3
ACAD_XREC_ROUNDTRIP
360
13A0
  3
ADSK_XREC_LAYOUTTHUMBNAIL
360
B75
  0
DICTIONARY
  5
13A1
330
5E
100
AcDbDictionary
280
     1
281
     1
  3
ACAD_XREC_ROUNDTRIP
360
13A2
  0
DICTIONARY
  5
139E
330
22
100
AcDbDictionary
280
     1
281
     1
  3
ACAD_XREC_ROUNDTRIP
360
139F
  0
DICTIONARY
  5
13AD
330
1381
100
AcDbDictionary
280
     1
281
     1
  3
ACAD_XREC_ROUNDTRIP
360
13AE
  0
DICTIONARY
  5
13AB
330
1380
100
AcDbDictionary
280
     1
281
     1
  3
ACAD_XREC_ROUNDTRIP
360
13AC
  0
DICTIONARY
  5
13A9
330
E24
100
AcDbDictionary
280
     1
281
     1
  3
ACAD_XREC_ROUNDTRIP
360
13AA
  0
DICTIONARY
  5
13A3
330
87
100
AcDbDictionary
280
     1
281
     1
  3
ACAD_XREC_ROUNDTRIP
360
13A4
  0
XRECORD
  5
13A0
102
{ACAD_REACTORS
330
B74
102
}
330
B74
100
AcDbXrecord
280
     1
102
SHADEPLOT
 70
     0
102
SHADEPLOTRESLEVEL
 70
     2
102
SHADEPLOTCUSTOMDPI
 70
   300
  0
XRECORD
  5
B75
102
{ACAD_REACTORS
330
B74
102
}
330
B74
100
AcDbXrecord
280
     1
310
28000000B40000008B0000000100080000000000BC61000000000000000000000001000000000000FFFFFF0000000000FFFFFF000000000000000000000000000000000000000000000000000000000000000000330000006600000099000000CC000000FF00000000330000333300006633000099330000CC330000FF3300
310
0000660000336600006666000099660000CC660000FF66000000990000339900006699000099990000CC990000FF99000000CC000033CC000066CC000099CC0000CCCC0000FFCC000000FF000033FF000066FF000099FF0000CCFF0000FFFF000000003300330033006600330099003300CC003300FF003300003333003333
310
33006633330099333300CC333300FF33330000663300336633006666330099663300CC663300FF66330000993300339933006699330099993300CC993300FF99330000CC330033CC330066CC330099CC3300CCCC3300FFCC330000FF330033FF330066FF330099FF3300CCFF3300FFFF330000006600330066006600660099
310
006600CC006600FF00660000336600333366006633660099336600CC336600FF33660000666600336666006666660099666600CC666600FF66660000996600339966006699660099996600CC996600FF99660000CC660033CC660066CC660099CC6600CCCC6600FFCC660000FF660033FF660066FF660099FF6600CCFF6600
310
FFFF660000009900330099006600990099009900CC009900FF00990000339900333399006633990099339900CC339900FF33990000669900336699006666990099669900CC669900FF66990000999900339999006699990099999900CC999900FF99990000CC990033CC990066CC990099CC9900CCCC9900FFCC990000FF99
310
0033FF990066FF990099FF9900CCFF9900FFFF99000000CC003300CC006600CC009900CC00CC00CC00FF00CC000033CC003333CC006633CC009933CC00CC33CC00FF33CC000066CC003366CC006666CC009966CC00CC66CC00FF66CC000099CC003399CC006699CC009999CC00CC99CC00FF99CC0000CCCC0033CCCC0066CC
310
CC0099CCCC00CCCCCC00FFCCCC0000FFCC0033FFCC0066FFCC0099FFCC00CCFFCC00FFFFCC000000FF003300FF006600FF009900FF00CC00FF00FF00FF000033FF003333FF006633FF009933FF00CC33FF00FF33FF000066FF003366FF006666FF009966FF00CC66FF00FF66FF000099FF003399FF006699FF009999FF00CC
310
99FF00FF99FF0000CCFF0033CCFF0066CCFF0099CCFF00CCCCFF00FFCCFF0000FFFF0033FFFF0066FFFF0099FFFF00CCFFFF00FFFFFF00000000000D0D0D001A1A1A00282828003535350043434300505050005D5D5D006B6B6B00787878008686860093939300A1A1A100AEAEAE00BBBBBB00C9C9C900D6D6D600E4E4E400
310
F1F1F100FFFFFF0000000000000000000000000000000000000000000000000000000000000000000000000000000000E2E2E2E2E2E2E2E2E2E2E2E2E2E2E2E2E2E2E2E2E2E2E2E2E2E2E2E2E2E2E2E2E2E2E2E2E2E2E2E2E2E2E2E2E2E2E2E2E2E2E2E2E2E2E2E2E2E2E2E2E2E2E2E2E2E2E2E2E2E2E2E2E2E2E2E2E2E2E2
310
E2E2E2E2E2E2E2E2E2E2E2E2E2E2E2E2E2E2E2E2E2E2E2E2E2E2E2E2E2E2E2E2E2E2E2E2E2E2E2E2E2E2E2E2E2E2E2E2E2E2E2E2E2E2E2E2E2E2E2E2E2E2E2E2E2E2E2E2E2E2E2E2E2E2E2E2E2E2E2E2E2E2E2E2E2E2E2E2E2E2E2E2E2E2E2E2E2E2E2E2E2E2F5F5F5F5F5F5F5F5F5F5F5F5F5F5F5F5F5F5F5F5F5F5F5F5F5
310
F5F5F5F5F5F5F5F5F5F5F5F5F5F5F5F5F5F5F5F5F5F5F5F5F5F5F5F5F5F5F5F5F5F5F5F5F5F5F5F5F5F5F5F5F5F5F5F5F5F5F5F5F5F5F5F5F5F5F5F5F5F5F5F5F5F5F5F5F5F5F5F5F5F5F5F5F5F5F5F5F5F5F5F5F5F5F5F5F5F5F5F5F5F5F5F5F5F5F5F5F5F5F5F5F5F5F5F5F5F5F5F5F5F5F5F5F5F5F5F5F5F5F5F5F5F5F5
310
F5F5F5F5F5F5F5F5F5F5F5F5F5F5F5F5F5F5F5F5F5F5F5F5F5E2E2E2F5F5F5F5F5F5F5F5F5F5F5F5F5F5F5F5F5F5F5F5F5F5F5F5F5F5F5F5F5F5F5F5F5F5F5F5F5F5F5F5F5F5F5F5F5F5F5F5F5F5F5F5F5F5F5F5F5F5F5F5F5F5F5F5F5F5F5F5F5F5F5F5F5F5F5F5F5F5F5F5F5F5F5F5F5F5F5F5F5F5F5F5F5F5F5F5F5F5F5
310
F5F5F5F5F5F5F5F5F5F5F5F5F5F5F5F5F5F5F5F5F5F5F5F5F5F5F5F5F5F5F5F5F5F5F5F5F5F5F5F5F5F5F5F5F5F5F5F5F5F5F5F5F5F5F5F5F5F5F5F5F5F5F5F5F5F5F5F5F5F5F5F5F5F5F5F5F5F5E2E2E2F5F5F5F5F5F5F5F5F5F5F5F5F5F5F5F5F5F5F5F5F5F5F5F5F5F5F5F5F5F5F5F5F5F5F5F5F5F5F5F5F5F5F5F5F5F5
310
F5F5F5F5F5F5F5F5F5F5F5F5F5F5F5F5F5F5F5F5F5F5F5F5F5F5F5F5F5F5F5F5F5F5F5F5F5F5F5F5F5F5F5F5F5F5F5F5F5F5F5F5F5F5F5F5F5F5F5F5F5F5F5F5F5F5F5F5F5F5F5F5F5F5F5F5F5F5F5F5F5F5F5F5F5F5F5F5F5F5F5F5F5F5F5F5F5F5F5F5F5F5F5F5F5F5F5F5F5F5F5F5F5F5F5F5F5F5F5F5F5F5F5F5F5F5F5
310
F5F5F5F5E2E2E2F5F5F5F5F5F5F5F5F5F5F5F5F5F5F5F5F5F5F5F5F5F5F5F5F5F5F5F5F5F5F5F5F5F5F5F5F5F5F5F5F5F5F5F5F5F5F5F5F5F5F5F5F5F5F5F5F5F5F5F5F5F5F5F5F5F5F5F5F5F5F5F5F5F5F5F5F5F5F5F5F5F5F5F5F5F5F5F5F5F5F5F5F5F5F5F5F5F5F5F5F5F5F5F5F5F5F5F5F5F5F5F5F5F5F5F5F5F5F5F5
310
F5F5F5F5F5F5F5F5F5F5F5F5F5F5F5F5F5F5F5F5F5F5F5F5F5F5F5F5F5F5F5F5F5F5F5F5F5F5F5F5F5F5F5F5F5F5F5F5F5F5F5F5F5F5F5F5F5E2E2E2F5F5F5E2E2E2E2E2E2E2E2F5F5F5F5F5F5F5F5F5E2E2E2E2E2E2E2E2E2E2E2E2E2E2E2E2F5F5F5F5F5F5F5F5E2E2E2E2E2E2E2E2E2E2E2E2E2E2E2E2F5F5F5F5F5F5F5
310
F5F5E2E2E2E2E2E2E2E2E2E2E2E2E2E2E2F5F5F5F5F5F5F5F5F5E2E2E2E2E2E2E2E2E2E2E2E2E2E2E2F5F5F5F5F5F5F5F5F5E2E2E2E2E2E2E2E2E2E2E2E2E2E2E2E2F5F5F5F5F5F5F5F5E2E2E2E2E2E2E2E2E2E2E2E2E2E2E2E2F5F5F5F5F5F5F5F5F5E2E2E2E2E2E2E2E2F5F5F5E2E2E2F5F5F5E2F5F5F5F5F5F5F5F5F5F5
310
F5F5F5F5F5F5F5F5F5F5F5F5F5F5F5F5F5F5F5F5F5F5F5F5F5F5F5F5F5F5F5F5F5F5F5F5F5F5F5F5F5F5F5F5F5F5F5F5F5F5F5F5F5F5F5F5F5F5F5F5F5F5F5F5F5F5F5F5F5F5F5F5F5F5F5F5F5F5F5F5F5F5F5F5F5F5F5F5F5F5F5F5F5F5F5F5F5F5F5F5F5F5F5F5F5F5F5F5F5F5F5F5F5F5F5F5F5F5F5F5F5F5F5F5F5F5F5
310
F5F5F5F5F5F5F5F5F5F5F5F5F5F5F5F5F5F5F5F5F5F5F5F5F5F5F5F5F5F5F5F5E2F5F5F5E2E2E2F5F5F5E2F5F5F5F5F5F5F5F5F5F5F5F5F5F5F5F5F5F5F5F5F5F5F5F5F5F5F5F5F5F5F5F5F5F5F5F5F5F5F5F5F5F5F5F5F5F5F5F5F5F5F5F5F5F5F5F5F5F5F5F5F5F5F5F5F5F5F5F5F5F5F5F5F5F5F5F5F5F5F5F5F5F5F5F5
310
F5F5F5F5F5F5F5F5F5F5F5F5F5F5F5F5F5F5F5F5F5F5F5F5F5F5F5F5F5F5F5F5F5F5F5F5F5F5F5F5F5F5F5F5F5F5F5F5F5F5F5F5F5F5F5F5F5F5F5F5F5F5F5F5F5F5F5F5F5F5F5F5F5F5F5F5F5F5F5F5F5F5F5F5F5E2F5F5F5E2E2E2F5F5F5E2F5F5F5F5F5F5F5F5F5F5F5F5F5F5F5F5F5F5F5F5F5F5F5F5F5F5F5F5F5F5F5
310
F5F5F5F5F5F5F5F5F5F5F5F5F5F5F5F5F5F5F5F5F5F5F5F5F5F5F5F5F5F5F5F5F5F5F5F5F5F5F5F5F5F5F5F5F5F5F5F5F5F5F5F5F5F5F5F5F5F5F5F5F5F5F5F5F5F5F5F5F5F5F5F5F5F5F5F5F5F5F5F5F5F5F5F5F5F5F5F5F5F5F5F5F5F5F5F5F5F5F5F5F5F5F5F5F5F5F5F5F5F5F5F5F5F5F5F5F5F5F5F5F5F5F5F5F5F5F5
310
F5F5F5F5F5F5F5F5F5F5F5E2F5F5F5E2E2E2F5F5F5E2F5F5F5F5F5F5F5F5F5F5F5F5F5F5F5F5F5F5F5F5F5F5F5F5F5F5F5F5F5F5F5F5F5F5F5F5F5F5F5F5F5F5F5F5F5F5F5F5F5F5F5F5F5F5F5F5F5F5F5F5F5F5F5F5F5F5F5F5F5F5F5F5F5F5F5F5F5F5F5F5F5F5F5F5F5F5F5F5F5F5F5F5F5F5F5F5F5F5F5F5F5F5F5F5F5
310
F5F5F5F5F5F5F5F5F5F5F5F5F5F5F5F5F5F5F5F5F5F5F5F5F5F5F5F5F5F5F5F5F5F5F5F5F5F5F5F5F5F5F5F5F5F5F5F5F5F5F5F5F5F5F5F5F5F5F5F5F5F5F5F5E2F5F5F5E2E2E2F5F5F5E2F5F5F5F5F5F5F5F5F5F5F5F5F5F5F5F5F5F5F5F5F5F5F5F5F5F5F5F5F5F5F5F5F5F5F5F5F5F5F5F5F5F5F5F5F5F5F5F5F5F5F5F5
310
F5F5F5F5F5F5F5F5F5F5F5F5F5F5F5F5F5F5F5F5F5F5F5F5F5F5F5F5F5F5F5F5F5F5F5F5F5F5F5F5F5F5F5F5F5F5F5F5F5F5F5F5F5F5F5F5F5F5F5F5F5F5F5F5F5F5F5F5F5F5F5F5F5F5F5F5F5F5F5F5F5F5F5F5F5F5F5F5F5F5F5F5F5F5F5F5F5F5F5F5F5F5F5F5F5F5F5F5F5F5F5F5F5F5F5F5F5E2F5F5F5E2E2E2F5F5F5
310
E2F5F5F5F5F5F5F5F5F5F5F5F5F5F5F5F5F5F5F5F5F5F5F5F5F5F5F5F5F5F5F5F5F5F5F5F5F5F5F5F5F5F5F5F5F5F5F5F5F5F5F5F5F5F5F5F5F5F5F5F5F5F5F5F5F5F5F5F5F5F5F5F5F5F5F5F5F5F5F5F5F5F5F5F5F5F5F5F5F5F5F5F5F5F5F5F5F5F5F5F5F5F5F5F5F5F5F5F5F5F5F5F5F5F5F5F5F5F5F5F5F5F5F5F5F5F5
310
F5F5F5F5F5F5F5F5F5F5F5F5F5F5F5F5F5F5F5F5F5F5F5F5F5F5F5F5F5F5F5F5F5F5F5F5F5F5F5F5F5F5F5E2F5F5F5E2E2E2F5F5F5E2F5F5F5F5F5F5F5F5F5F5F5F5F5F5F5F5F5F5F5F5F5F5F5F5F5F5F5F5F5F5F5F5F5F5F5F5F5F5F5F5F5F5F5F5F5F5F5F5F5F5F5F5F5F5F5F5F5F5F5F5F5F5F5F5F5F5F5F5F5F5F5F5F5
310
F5F5F5F5F5F5F5F5F5F5F5F5F5F5F5F5F5F5F5F5F5F5F5F5F5F5F5F5F5F5F5F5F5F5F5F5F5F5F5F5F5F5F5F5F5F5F5F5F5F5F5F5F5F5F5F5F5F5F5F5F5F5F5F5F5F5F5F5F5F5F5F5F5F5F5F5F5F5F5F5F5F5F5F5F5F5F5F5F5F5F5F5F5F5F5F5E2F5F5F5E2E2E2F5F5F5E2F5F5F5F5F5F5F5F5F5F5F5F5F5F5F5F5F5F5F5F5
310
F5F5F5F5F5F5F5F5F5F5F5F5F5F5F5F5F5F5F5F5F5F5F5F5F5F5F5F5F5F5F5F5F5F5F5F5F5F5F5F5F5F5F5F5F5F5F5F5F5F5F5F5F5F5F5F5F5F5F5F5F5F5F5F5F5F5F5F5F5F5F5F5F5F5F5F5F5F5F5F5F5F5F5F5F5F5F5F5F5F5F5F5F5F5F5F5F5F5F5F5F5F5F5F5F5F5F5F5F5F5F5F5F5F5F5F5F5F5F5F5F5F5F5F5F5F5F5
310
F5F5F5F5F5F5F5F5F5F5F5F5F5F5F5F5F5F5F5F5F5F5E2F5F5F5E2E2E2F5F5F5F5F5F5F5F5F5F5F5F5F5F5F5F5F5F5F5F5F5F5F5F5F5F5F5F5F5F5F5F5F5F5F5F5F5F5F5F5F5F5F5F5F5F5F5F5F5F5F5F5F5F5F5F5F5F5F5F5F5F5F5F5F5F5F5F5F5F5F5F5F5F5F5F5F5F5F5F5F5F5F5F5F5F5F5F5F5F5F5F5F5F5F5F5F5F5
310
F5F5F5F5F5F5F5F5F5F5F5F5F5F5F5F5F5F5F5F5F5F5F5F5F5F5F5F5F5F5F5F5F5F5F5F5F5F5F5F5F5F5F5F5F5F5F5F5F5F5F5F5F5F5F5F5F5F5F5F5F5F5F5F5F5F5F5F5F5F5F5F5F5F5F5F5F5F5F5E2E2E2F5F5F5F5F5F5F5F5F5F5F5F5F5F5F5F5F5F5F5F5F5F5F5F5F5F5F5F5F5F5F5F5F5F5F5F5F5F5F5F5F5F5F5F5F5
310
F5F5F5F5F5F5F5F5F5F5F5F5F5F5F5F5F5F5F5F5F5F5F5F5F5F5F5F5F5F5F5F5F5F5F5F5F5F5F5F5F5F5F5F5F5F5F5F5F5F5F5F5F5F5F5F5F5F5F5F5F5F5F5F5F5F5F5F5F5F5F5F5F5F5F5F5F5F5F5F5F5F5F5F5F5F5F5F5F5F5F5F5F5F5F5F5F5F5F5F5F5F5F5F5F5F5F5F5F5F5F5F5F5F5F5F5F5F5F5F5F5F5F5F5F5F5F5
310
F5F5F5F5F5E2E2E2F5F5F5F5F5F5F5F5F5F5F5F5F5F5F5F5F5F5F5F5F5F5F5F5F5F5F5F5F5F5F5F5F5F5F5F5F5F5F5F5F5F5F5F5F5F5F5F5F5F5F5F5F5F5F5F5F5F5F5F5F5F5F5F5F5F5F5F5F5F5F5F5F5F5F5F5F5F5F5F5F5F5F5F5F5F5F5F5F5F5F5F5F5F5F5F5F5F5F5F5F5F5F5F5F5F5F5F5F5F5F5F5F5F5F5F5F5F5F5
310
F5F5F5F5F5F5F5F5F5F5F5F5F5F5F5F5F5F5F5F5F5F5F5F5F5F5F5F5F5F5F5F5F5F5F5F5F5F5F5F5F5F5F5F5F5F5F5F5F5F5F5F5F5F5F5F5F5F5E2E2E2F5F5F5F5F5F5F5F5F5F5F5F5F5F5F5F5F5F5F5F5F5F5F5F5F5F5F5F5F5F5F5F5F5F5F5F5F5F5F5F5F5F5F5F5F5F5F5F5F5F5F5F5F5F5F5F5F5F5F5F5F5F5F5F5F5F5
310
F5F5F5F5F5F5F5F5F5F5F5F5F5F5F5F5F5F5F5F5F5F5F5F5F5F5F5F5F5F5F5F5F5F5F5F5F5F5F5F5F5F5F5F5F5F5F5F5F5F5F5F5F5F5F5F5F5F5F5F5F5F5F5F5F5F5F5F5F5F5F5F5F5F5F5F5F5F5F5F5F5F5F5F5F5F5F5F5F5F5F5F5F5F5F5F5F5F5F5F5F5F5F5F5F5F5F5F5F5F5F5E2E2E2F5F5F5F5F5F5F5F5F5F5F5F5F5
310
F5F5F5F5F5F5F5BEBEBEBEBEBEBEBEBEBEBEBEBEBEBEBEBEBEBEBEBEBEBEBEBEBEBEBEBEBEBEBEBEBEBEBEBEBEBEBEBEBEBEBEBEBEBEBEBEBEBEBEBEBEBEBEBEBEBEBEBEBEBEBEBEBEBEBEBEBEBEBEBEBEBEBEBEBEBEBEBEBEBEBEBEBEBEBEBEBEBEBEBEBEBEBEBEBEBEBEBEBEBEBEBEBEBEBEBEBEBEBEBEBEBEBEBEBEBEBE
310
BEBEBEBEBEBEBEBEBEBEBEBEBEBEBEBEBEF5F5F5F5F5F5F5F5F5F5F5F5F5F5F5F5F5F5F5F5E2E2E2F5F5F5F5F5F5F5F5F5F5F5F5F5F5F5F5F5F5F5F5BEF5F5F5F5F5F5F5F5F5F5F5F5F5F5F5F5F5F5F5F5F5F5F5F5F5F5F5F5F5F5F5F5F5F5F5F5F5F5F5F5F5F5F5F5F5F5F5F5F5F5F5F5F5F5F5F5F5F5F5F5F5F5F5F5F5F5
310
F5E2E2E2E2E2E2E2E2E2E2E2E2E2E2E2E2E2E2E2E2E2E2E2E2E2E2E2E2E2E2E2E2E2E2E2E2E2E2E2E2E2E2E2E2E2E2E2F5F5F5F5F5F5F5F5F5F5F5F5F5F5F5F5F5F5F5F5F5BEF5F5F5F5F5F5F5F5F5F5F5F5F5F5F5F5F5F5F5F5E2E2E2F5F5F5F5F5F5F5F5F5F5F5F5F5F5F5F5F5F5F5F5BEF5F5F5F5F5F5F5F5F5F5F5F5F5
310
F5F5F5F5F5F5F5F5F5F5F5F5F5F5F5F5F5F5F5F5F5F5F5F5F5F5F5F5F5F5F5F5F5F5F5F5F5F5F5F5F5F5F5F5F5F5F5F5F5F5F5F5F5F5E2E2E2E2E2E2E2E2E2E2E2E2E2E2E2E2E2E2E2E2E2E2E2E2E2E2E2E2E2E2E2E2E2E2E2E2E2E2E2E2E2E2E2E2E2E2E2F5F5F5F5F5F5F5F5F5F5F5F5F5F5F5F5F5F5F5F5F5BEF5F5F5F5
310
F5F5F5F5F5F5F5F5F5F5F5F5F5F5F5F5E2E2E2F5F5F5F5F5F5F5F5F5F5F5F5F5F5F5F5F5F5F5F5BEF5F5F5F5F5F5F5F5F5F5F5F5F5F5F5F5F5F5F5F5F5F5F5F5F5F5F5F5F5F5F5F5F5F5F5F5F5F5F5F5F5F5F5F5F5F5F5F5F5F5F5F5F5F5F5F5F5F5F5F5F5F5F5F5F5F5F5F5F5F5F5F5F5F5F5F5F5F5F5F5F5F5F5F5F5F5F5
310
F5F5F5F5F5F5F5F5F5F5F5F5F5F5F5F5F5F5F5F5F5F5F5F5F5F5F5F5F5F5F5F5F5F5F5F5F5F5F5F5F5F5F5F5F5F5F5F5BEF5F5F5F5F5F5F5F5F5F5F5F5F5F5F5F5F5F5F5F5E2E2E2F5F5F5F5F5F5F5F5F5F5F5F5F5F5F5F5F5F5F5F5BEF5F5F5F5F5F5F5F5F5F5F5F5F5F5F5F5F5F5F5F5F5F5F5F5F5F5F5F5F5F5F5F5F5F5
310
F5F5F5F5F5F5F5F5F5F5F5F5F5F5F5F5F5F5F5F5F5F5F5F5F5F5F5F5F5F5F5F5F5E2E2E2E2E2E2E2E2E2E2E2E2E2E2E2E2E2E2E2E2E2E2E2E2E2E2E2E2E2E2E2E2E2E2E2E2E2F5F5F5F5F5F5F5F5F5F5F5F5F5F5F5F5F5F5F5F5F5F5F5F5F5F5F5F5F5F5F5BEF5F5F5F5F5F5F5F5F5F5F5F5F5F5F5F5F5F5F5F5E2E2E2F5F5
310
F5E2F5F5F5F5F5F5F5F5F5F5F5F5F5F5F5F5BEF5F5F5F5F5F5F5F5F5F5F5F5F5F5F5F5F5F5F5F5F5F5F5F5F5F5F5F5F5F5F5F5F5F5F5F5F5F5F5F5F5F5F5F5F5F5F5F5F5F5F5F5F5F5F5F5F5F5F5F5F5F5F5F5F5F5F5E2E2E2E2E2E2E2E2E2E2E2E2E2E2E2E2E2E2E2E2E2E2E2E2E2E2E2E2E2E2E2E2E2E2E2E2E2F5F5F5F5
310
F5F5F5F5F5F5F5F5F5F5F5F5F5F5F5F5F5F5F5F5F5F5F5F5F5F5F5BEF5F5F5F5F5F5F5F5F5F5F5F5F5F5F5F5E2F5F5F5E2E2E2F5F5F5E2F5F5F5F5F5F5F5F5F5F5F5F5F5F5F5F5BEF5F5F5F5F5F5F5F5F5F5F5F5F5F5F5F5F5F5F5F5F5F5F5F5F5F5F5F5F5F5F5F5F5F5F5F5F5F5F5F5F5F5F5F5F5F5F5F5F5F5F5F5F5F5F5
310
F5F5F5F5F5F5F5F5F5F5F5F5E2E2E2E2E2E2E2E2E2E2E2E2E2E2E2E2E2E2E2E2E2E2E2E2E2E2E2E2E2E2E2E2E2E2E2E2E2F5F5F5F5F5F5F5F5F5F5F5F5F5F5F5F5F5F5F5F5F5F5F5F5F5F5F5F5F5F5F5BEF5F5F5F5F5F5F5F5F5F5F5F5F5F5F5F5E2F5F5F5E2E2E2F5F5F5E2F5F5F5F5F5F5F5F5F5F5F5F5F5F5F5F5BEF5F5
310
F5F5F5F5F5F5F5F5F5F5F5F5F5F5F5F5F5F5F5F5F5F5F5F5F5F5F5F5F5F5F5F5F5F5F5F5F5F5F5F5F5F5F5F5F5F5F5F5F5F5F5F5F5F5F5F5F5F5F5F5E2E2E2E2E2E2E2E2E2E2E2E2E2E2E2E2F5F5F5F5F5F5F5F5F5F5F5F5F5F5F5F5F5F5F5F5F5F5F5F5F5F5F5F5F5F5F5F5F5F5F5F5F5F5F5F5F5F5F5F5F5F5F5F5F5F5F5
310
F5F5F5F5F5F5BEF5F5F5F5F5F5F5F5F5F5F5F5F5F5F5F5E2F5F5F5E2E2E2F5F5F5E2F5F5F5F5F5F5F5F5F5F5F5F5F5F5F5F5BEF5F5F5F5F5F5F5F5F5F5F5F5F5F5F5F5F5F5F5F5F5F5F5F5F5F5F5F5F5F5F5F5F5F5F5F5F5F5F5F5F5F5F5F5F5F5F5F5F5F5F5F5F5F5F5F5F5F5F5F5F5F5E2E2E2E2E2E2E2E2E2E2E2E2E2E2
310
E2E2F5F5F5F5F5F5F5F5F5F5F5F5F5F5F5F5F5F5F5F5F5F5F5F5F5F5F5F5F5F5F5F5F5F5F5F5F5F5F5F5F5F5F5F5F5F5F5F5F5F5F5F5F5F5F5F5F5BEF5F5F5F5F5F5F5F5F5F5F5F5F5F5F5F5E2F5F5F5E2E2E2F5F5F5E2F5F5F5F5F5F5F5F5F5F5F5F5F5F5F5F5BEF5F5F5F5F5F5F5F5F5F5F5F5F5F5F5F5F5F5F5F5F5F5F5
310
F5F5F5F5F5F5F5F5F5F5F5F5F5F5F5F5F5F5F5F5F5F5F5F5F5F5F5F5F5F5F5F5F5F5F5F5F5F5F5E2E2E2E2E2E2E2E2E2E2E2E2E2E2E2E2F5F5F5F5F5F5F5F5F5F5F5F5F5F5F5F5F5F5F5F5F5F5F5F5F5F5F5F5F5F5F5F5F5F5F5F5F5F5F5F5F5F5F5F5F5F5F5F5F5F5F5F5F5F5F5F5F5BEF5F5F5F5F5F5F5F5F5F5F5F5F5F5
310
F5F5E2F5F5F5E2E2E2F5F5F5E2F5F5F5F5F5F5F5F5F5F5F5F5F5F5F5F5BEF5F5F5F5F5F5F5F5F5F5F5F5F5F5F5F5F5F5F5F5F5F5F5F5F5F5F5F5F5F5F5F5F5F5F5F5F5F5F5F5F5F5F5F5F5F5F5F5F5F5F5F5F5F5F5F5F5F5F5F5F5F5F5F5F5F5F5F5F5F5F5F5F5F5F5F5F5F5F5F5F5F5F5F5F5F5F5F5F5F5F5F5F5F5F5F5F5
310
F5F5F5F5F5F5F5F5F5F5F5F5F5F5F5F5F5F5F5F5F5F5F5F5F5F5F5F5F5F5F5F5F5F5F5F5F5F5BEF5F5F5F5F5F5F5F5F5F5F5F5F5F5F5F5E2F5F5F5E2E2E2F5F5F5E2F5F5F5F5F5F5F5F5F5F5F5F5F5F5F5F5BEF5F5F5F5F5F5F5F5F5F5F5F5F5F5F5F5F5F5F5F5F5F5F5F5F5F5F5F5F5F5F5F5F5F5F5F5F5F5F5F5F5F5F5F5
310
F5F5F5F5F5F5F5F5F5F5F5F5F5F5F5F5F5F5F5F5F5F5F5F5F5F5F5F5F5F5F5F5F5F5F5F5F5E2E2E2E2E2E2E2F5F5F5F5F5F5F5F5F5F5F5F5F5F5F5F5F5F5F5F5F5F5F5F5F5F5F5F5F5F5F5F5F5F5F5F5F5F5F5F5F5F5F5F5F5F5F5BEF5F5F5F5F5F5F5F5F5F5F5F5F5F5F5F5E2F5F5F5E2E2E2F5F5F5E2F5F5F5F5F5F5F5F5
310
F5F5F5F5F5F5F5F5BEF5F5F5F5F5F5F5F5F5F5F5F5F5F5F5F5F5F5F5F5F5F5F5F5F5F5F5F5F5F5F5F5F5F5F5F5F5F5F5F5F5F5F5F5F5F5F5F5F5F5F5F5F5F5F5F5F5F5F5F5F5F5E2E2E2E2E2E2E2E2E2E2E2E2E2E2E2E2E2E2E2E2E2E2E2E2E2E2E2E2F5F5E2E2E2E2E2E2E2E2E2E2F5F5E2E2E2E2E2E2E2E2E2E2F5F5F5F5
310
F5F5F5F5F5F5F5F5F5F5F5F5F5F5F5F5F5BEF5F5F5F5F5F5F5F5F5F5F5F5F5F5F5F5E2F5F5F5E2E2E2F5F5F5E2F5F5F5F5F5F5F5F5F5F5F5F5F5F5F5F5BEF5F5F5F5F5F5F5F5F5F5F5F5F5F5F5F5F5F5F5F5F5F5F5F5F5F5F5F5F5F5F5F5F5F5F5F5F5F5F5F5F5F5F5F5F5F5F5F5F5F5F5F5F5F5F5F5F5F5F5F5F5F5E2E2E2
310
E2E2E2E2E2E2E2E2E2E2E2E2E2E2E2E2E2E2E2E2E2E2E2E2E2F5F5E2E2E2E2E2E2E2E2E2E2F5F5E2E2E2E2E2E2E2E2E2E2F5F5F5F5F5F5F5F5F5F5F5F5F5F5F5F5F5F5F5F5F5BEF5F5F5F5F5F5F5F5F5F5F5F5F5F5F5F5E2F5F5F5E2E2E2F5F5F5E2F5F5F5F5F5F5F5F5F5F5F5F5F5F5F5F5BEF5F5F5F5F5F5F5F5F5F5F5F5
310
F5F5F5F5F5F5F5F5F5F5F5F5F5F5F5F5F5F5F5F5F5F5F5F5F5F5F5F5F5F5F5F5F5F5F5F5F5F5F5F5F5F5F5F5F5F5F5F5F5F5E2E2E2E2E2E2E2E2E2E2E2E2E2E2E2E2E2E2E2E2E2E2E2E2E2E2E2E2F5F5E2E2E2E2E2E2E2E2E2E2F5F5E2E2E2E2E2E2E2E2E2E2F5F5F5F5F5F5F5F5F5F5F5F5F5F5F5F5F5F5F5F5F5BEF5F5F5
310
F5F5F5F5F5F5F5F5F5F5F5F5F5E2F5F5F5E2E2E2F5F5F5E2F5F5F5F5F5F5F5F5F5F5F5F5F5F5F5F5BEF5F5F5F5F5F5F5F5F5F5F5F5F5F5F5F5F5F5F5F5F5F5F5F5F5F5F5F5F5F5F5F5F5F5F5F5F5F5F5F5F5F5F5F5F5F5F5F5F5F5F5F5F5F5F5F5F5F5F5F5F5F5F5F5F5F5F5F5F5F5F5F5F5F5F5F5F5F5E2E2E2E2E2E2E2E2
310
E2E2E2F5F5F5F5F5F5F5F5F5F5F5F5F5F5F5F5F5F5F5F5F5F5F5F5F5F5F5F5F5F5F5F5F5F5F5F5F5F5F5F5F5F5F5F5F5F5BEF5F5F5F5F5F5F5F5F5F5F5F5F5F5F5F5E2F5F5F5E2E2E2F5F5F5E2F5F5F5F5F5F5F5F5F5F5F5F5F5F5F5F5BEF5F5F5F5F5F5F5F5F5F5F5F5F5F5F5F5F5F5F5F5F5F5F5F5F5F5F5F5F5F5F5F5F5
310
F5F5F5F5F5F5F5F5F5F5F5F5F5F5F5F5F5F5F5F5F5F5F5F5F5F5F5F5F5F5F5F5F5F5F5F5F5F5F5F5F5F5F5F5F5F5F5F5F5F5F5F5F5F5F5F5F5F5F5F5F5F5F5F5F5F5F5F5F5F5F5F5F5F5F5F5F5F5F5F5F5F5F5F5F5F5F5F5F5F5F5F5F5F5F5F5F5F5F5F5F5F5BEF5F5F5F5F5F5F5F5F5F5F5F5F5F5F5F5E2F5F5F5E2E2E2F5
310
F5F5E2F5F5F5F5F5F5F5F5F5F5F5F5F5F5F5F5BEF5F5F5F5F5F5F5F5F5F5F5F5F5F5F5F5F5F5F5F5F5F5F5F5F5F5F5F5F5F5F5F5F5F5F5F5F5F5F5F5F5F5F5F5F5F5F5F5F5F5F5F5F5F5F5F5F5F5F5F5F5F5F5F5F5F5F5F5F5F5F5F5F5F5F5F5F5F5F5F5F5F5F5F5F5F5F5F5F5F5F5F5F5F5F5F5F5F5F5F5F5F5F5F5F5F5F5
310
F5F5F5F5F5F5F5F5F5F5F5F5F5F5F5F5F5F5F5F5F5F5F5F5F5F5F5F5BEF5F5F5F5F5F5F5F5F5F5F5F5F5F5F5F5E2F5F5F5E2E2E2F5F5F5E2F5F5F5F5F5F5F5F5F5F5F5F5F5F5F5F5BEF5F5F5F5F5F5F5E2E2E2E2E2E2E2E2E2E2E2E2E2E2E2E2E2E2E2E2E2E2E2E2E2E2E2E2E2E2E2E2E2E2E2E2E2E2E2E2E2E2E2E2E2E2E2
310
E2E2E2E2E2E2E2E2E2E2E2E2E2E2E2E2E2E2E2E2E2E2E2E2E2E2E2E2E2E2E2E2E2E2E2E2E2E2E2E2E2E2E2E2E2E2E2E2E2E2E2E2E2E2E2E2E2E2E2E2E2E2E2E2E2E2E2E2E2E2E2E2E2E2F5F5F5F5F5F5F5BEF5F5F5F5F5F5F5F5F5F5F5F5F5F5F5F5E2F5F5F5E2E2E2F5F5F5E2F5F5F5F5F5F5F5F5F5F5F5F5F5F5F5F5BEF5
310
F5F5F5F5F5F5E2F5F5F5F5F5F5F5F5F5F5F5F5F5F5F5F5F5F5F5F5F5F5F5F5F5F5F5F5F5F5F5F5F5F5F5F5F5F5F5F5F5F5F5F5F5F5F5F5F5F5F5F5F5F5F5F5F5F5F5F5F5F5F5F5F5F5F5F5F5F5F5F5F5F5F5F5F5F5F5F5F5F5F5F5F5F5F5F5F5F5F5F5F5F5F5F5F5F5F5F5F5F5F5F5F5F5F5F5F5F5F5F5F5F5F5F5F5F5F5E2
310
F5F5F5F5F5F5F5BEF5F5F5F5F5F5F5F5F5F5F5F5F5F5F5F5E2F5F5F5E2E2E2F5F5F5E2F5F5F5F5F5F5F5F5F5F5F5F5F5F5F5F5BEF5F5F5F5F5F5F5E2F5F5F5F5F5F5F5F5F5F5F5F5F5F5F5F5F5F5F5F5F5F5F5F5F5F5F5F5F5F5F5F5F5F5F5F5F5F5F5F5F5F5F5F5F5F5F5F5F5F5F5F5F5F5F5F5F5F5F5F5F5F5F5F5F5F5F5
310
F5F5F5F5F5F5F5F5F5F5F5F5F5F5F5F5F5F5F5F5F5F5F5F5F5F5F5F5F5F5F5F5F5F5F5F5F5F5F5F5F5F5F5F5F5F5F5F5F5F5F5F5E2F5F5F5F5F5F5F5BEF5F5F5F5F5F5F5F5F5F5F5F5F5F5F5F5E2F5F5F5E2E2E2F5F5F5E2F5F5F5F5F5F5F5F5F5F5F5F5F5F5F5F5BEF5F5F5F5F5F5F5E2F5F5F5F5F5F5F5F5F5F5F5F5F5F5
310
F5F5F5F5F5F5F5F5F5F5F5F5F5F5F5F5F5F5F5F5F5F5F5F5F5F5F5F5F5F5F5F5F5F5F5F5F5F5F5F5F5F5F5F5F5F5F5F5F5F5F5F5F5F5F5F5F5F5F5F5F5F5F5F5F5F5F5F5F5F5F5F5F5F5F5F5F5F5F5F5F5F5F5F5F5F5F5F5F5F5F5F5F5F5F5F5F5F5F5F5F5F5F5F5F5E2F5F5F5F5F5F5F5BEF5F5F5F5F5F5F5F5F5F5F5F5F5
310
F5F5F5E2F5F5F5E2E2E2F5F5F5F5F5F5F5F5F5F5F5F5F5F5F5F5F5F5F5F5BEF5F5F5F5F5F5F5E2F5F5F5F5F5F5F5F5F5F5F5F5F5F5F5F5F5F5F5F5F5F5F5F5F5F5F5F5F5F5F5F5F5F5F5F5F5F5F5F5F5F5F5F5F5F5F5F5F5F5F5F5F5F5F5F5F5F5F5F5F5F5F5F5F5F5F5F5F5F5F5F5F5F5F5F5F5F5F5F5F5F5F5F5F5F5F5F5
310
F5F5F5F5F5F5F5F5F5F5F5F5F5F5F5F5F5F5F5F5F5F5F5F5F5F5F5F5F5F5F5E2F5F5F5F5F5F5F5BEF5F5F5F5F5F5F5F5F5F5F5F5F5F5F5F5F5F5F5F5E2E2E2F5F5F5F5F5F5F5F5F5F5F5F5F5F5F5F5F5F5F5F5BEF5F5F5F5F5F5F5E2F5F5F5F5F5F5F5F5F5F5F5F5F5F5F5F5F5F5F5F5F5F5F5F5F5F5F5F5F5F5F5F5F5F5F5
310
F5F5F5F5F5F5F5F5F5F5F5F5F5F5F5F5F5F5F5F5F5F5F5F5F5F5F5F5F5F5F5F5F5F5F5F5F5F5F5F5F5F5F5F5F5F5F5F5F5F5F5F5F5F5F5F5F5F5F5F5F5F5F5F5F5F5F5F5F5F5F5F5F5F5F5F5F5F5F5F5F5F5F5F5E2F5F5F5F5F5F5F5BEF5F5F5F5F5F5F5F5F5F5F5F5F5F5F5F5F5F5F5F5E2E2E2F5F5F5F5F5F5F5F5F5F5F5
310
F5F5F5F5F5F5F5F5F5BEF5F5F5F5F5F5F5E2F5F5F5F5F5F5F5F5F5F5F5F5F5F5F5F5F5F5F5F5F5F5F5F5F5F5F5F5F5F5F5F5F5F5F5F5F5F5F5F5F5F5F5F5F5F5F5F5F5F5F5F5F5F5F5F5F5F5F5F5F5F5F5F5F5F5F5F5F5F5F5F5F5F5F5F5F5F5F5F5F5F5F5F5F5F5F5F5F5F5F5F5F5F5F5F5F5F5F5F5F5F5F5E2E2E2E2E2F5
310
F5F5BEBEBEF5F5F5F5F5E2F5F5F5F5F5F5F5BEF5F5F5F5F5F5F5F5F5F5F5F5F5F5F5F5F5F5F5F5E2E2E2F5F5F5F5F5F5F5F5F5F5F5F5F5F5F5F5F5F5F5F5BEF5F5F5F5F5F5F5E2F5F5F5F5F5F5E2E2E2E2E2E2E2E2E2E2E2E2E2E2F5F5F5F5F5F5F5F5F5F5F5F5F5F5F5F5F5F5F5F5F5F5F5F5F5F5F5F5F5F5F5F5F5F5F5F5
310
F5F5F5F5F5F5F5F5F5F5F5F5F5F5F5F5F5F5F5F5F5F5F5F5F5F5F5F5F5F5F5F5F5F5F5F5F5F5F5F5F5F5F5F5F5F5F5E2E2E2E2F5F5F5F5BE00BEF5F5F5F5F5E2F5F5F5F5F5F5F5BEF5F5F5F5F5F5F5F5F5F5F5F5F5F5F5F5F5F5F5F5E2E2E2F5F5F5F5F5F5F5F5F5F5F5F5F5F5F5F5F5F5F5F5BEF5F5F5F5F5F5F5E2F5F5F5
310
F5F5F5F5E2E2E2E2E2E2F5E2E2E2E2E2E2F5F5F5F5F5F5F5F5F5F5F5F5F5F5F5F5F5F5F5F5F5F5F5F5F5F5F5F5F5F5F5F5F5F5F5F5F5F5F5F5F5F5F5F5F5F5F5F5F5F5F5F5F5F5F5F5F5F5F5F5F5F5F5F5F5F5F5F5F5F5F5F5F5F5F5F5F5F5F5F5F5F5F5F5F5F5F5F5F5F5F5BE00BEF5F5F5F5F5E2F5F5F5F5F5F5F5BEF5F5
310
F5F5F5F5F5F5F5F5F5F5F5F5F5F5F5F5F5F5E2E2E2F5F5F5F5F5F5F5F5F5F5F5F5F5F5F5F5F5F5F5F5BEF5F5F5F5F5F5F5E2F5F5F5F5F5F5E2E2E2E2E2E2E2E2E2E2E2E2E2E2E2F5F5F5F5F5F5F5F5F5F5F5F5F5F5F5F5F5F5F5F5F5F5F5F5F5F5F5F5F5F5F5F5F5F5F5F5F5F5F5F5F5F5F5F5F5F5F5F5F5F5F5F5F5F5F5F5
310
F5F5F5F5F5F5F5F5F5F5F5F5F5F5F5F5F5F5F5F5F5F5F5F5F5F5E2E2E2F5F5F5F5F5BEBEBEF5F5F5F5F5E2F5F5F5F5F5F5F5BEF5F5F5F5F5F5F5F5F5F5F5F5F5F5F5F5F5F5F5F5E2E2E2F5F5F5F5F5F5F5F5F5F5F5F5F5F5F5F5F5F5F5F5BEF5F5F5F5F5F5F5E2F5F5F5F5F5F5E2E2E2E2E2E2E2E2E2E2E2E2E2E2E2F5F5F5
310
F5F5F5F5F5F5F5F5F5F5F5F5F5F5F5F5F5F5F5F5F5F5F5F5F5F5F5F5F5F5F5F5F5F5F5F5F5F5F5F5F5F5F5F5F5F5F5F5F5F5F5F5F5F5F5F5F5F5F5F5F5F5F5F5F5F5F5F5F5F5F5F5F5F5F5F5F5F5F5F5F5F5F5F5F5F5F5F5F5F5F5F5F5F5F5E2F5F5F5F5F5F5F5BEF5F5F5F5F5F5F5F5F5F5F5F5F5F5F5F5F5F5F5F5E2E2E2
310
F5F5F5F5F5F5F5F5F5F5F5F5F5F5F5F5F5F5F5F5BEF5F5F5F5F5F5F5E2F5F5F5F5F5F5F5F5F5F5F5F5F5F5F5F5F5F5F5F5F5F5F5F5F5F5F5F5F5F5F5F5F5F5F5F5F5F5F5F5F5F5F5F5F5F5F5F5F5F5F5F5F5F5F5F5F5F5F5F5F5F5F5F5F5F5F5F5F5F5F5F5F5F5F5F5F5F5F5F5F5F5F5F5F5F5F5F5F5F5F5F5F5F5F5F5F5F5
310
F5F5F5F5F5F5F5F5F5F5F5F5F5F5F5F5F5F5F5F5F5E2F5F5F5F5F5F5F5BEF5F5F5F5F5F5F5F5F5F5F5F5F5F5F5F5F5F5F5F5E2E2E2F5F5F5F5F5F5F5F5F5F5F5F5F5F5F5F5F5F5F5F5BEF5F5F5F5F5F5F5E2F5F5F5F5F5F5F5F5F5F5F5F5F5F5F5F5F5F5F5F5F5F5F5F5F5F5F5F5F5F5F5F5F5F5F5F5F5F5F5F5F5F5F5F5F5
310
F5F5F5F5F5F5F5F5F5F5F5F5F5F5F5F5F5F5F5F5F5F5F5F5F5F5F5F5F5F5F5F5F5F5F5F5F5F5F5F5F5F5F5F5F5F5F5F5F5F5F5F5F5F5F5F5F5F5F5F5F5F5F5F5F5F5F5F5F5F5F5F5F5F5E2F5F5F5F5F5F5F5BEF5F5F5F5F5F5F5F5F5F5F5F5F5F5F5F5F5F5F5F5E2E2E2F5F5F5E2F5F5F5F5F5F5F5F5F5F5F5F5F5F5F5F5BE
310
F5F5F5F5F5F5F5E2F5F5F5F5F5F5F5F5F5F5F5F5F5F5F5F5F5F5F5F5F5F5F5F5F5F5F5F5F5F5F5F5F5F5F5F5F5F5F5F5F5F5F5F5F5F5F5F5F5F5F5F5F5F5F5F5F5F5F5F5F5F5F5F5F5F5F5F5F5F5F5F5F5F5F5F5F5F5F5F5F5F5F5F5F5F5F5F5F5F5F5F5F5F5F5F5F5F5F5F5F5F5F5F5F5F5F5F5F5F5F5F5F5F5F5F5F5F5F5
310
E2F5F5F5F5F5F5F5BEF5F5F5F5F5F5F5F5F5F5F5F5F5F5F5F5E2F5F5F5E2E2E2F5F5F5E2F5F5F5F5F5F5F5F5F5F5F5F5F5F5F5F5BEF5F5F5F5F5F5F5E2F5F5F5F5F5F5F5F5F5F5F5F5F5F5F5F5F5F5F5F5F5F5F5F5F5F5F5F5F5F5F5F5F5F5F5F5F5F5F5F5F5F5F5F5F5F5F5F5F5F5F5F5F5F5F5F5F5F5F5F5F5F5F5F5F5F5
310
F5F5F5F5F5F5F5F5F5F5F5F5F5F5F5F5F5F5F5F5F5F5F5F5F5F5F5F5F5F5F5F5F5F5F5F5F5F5F5F5F5F5F5F5F5F5F5F5F5F5F5F5F5E2F5F5F5F5F5F5F5BEF5F5F5F5F5F5F5F5F5F5F5F5F5F5F5F5E2F5F5F5E2E2E2F5F5F5E2F5F5F5F5F5F5F5F5F5F5F5F5F5F5F5F5BEF5F5F5F5F5F5F5E2F5F5F5F5F5F5F5F5F5F5F5F5F5
310
F5F5F5F5F5F5F5F5F5F5F5F5F5F5F5F5F5F5F5F5F5F5F5F5F5F5F5F5F5F5F5F5F5F5F5F5F5F5F5F5F5F5F5F5F5F5F5F5F5F5F5F5F5F5F5F5F5F5F5F5F5F5F5F5F5F5F5F5F5F5F5F5F5F5F5F5F5F5F5F5F5F5F5F5F5F5F5F5F5F5F5F5F5F5F5F5F5F5F5F5F5F5F5F5F5F5E2F5F5F5F5F5F5F5BEF5F5F5F5F5F5F5F5F5F5F5F5
310
F5F5F5F5E2F5F5F5E2E2E2F5F5F5E2F5F5F5F5F5F5F5F5F5F5F5F5F5F5F5F5BEF5F5F5F5F5F5F5E2F5F5F5F5F5F5F5F5F5F5F5F5F5F5F5F5F5F5F5F5F5F5F5F5F5F5F5F5F5F5F5F5F5F5F5F5F5F5F5F5F5F5F5F5F5F5F5F5F5F5F5F5F5F5F5F5F5F5F5F5F5F5F5F5F5F5F5F5F5F5F5F5F5F5F5F5F5F5F5F5F5F5F5F5F5F5F5
310
F5F5F5F5F5F5F5F5F5F5F5F5F5F5F5F5F5F5F5F5F5F5F5F5F5F5F5F5F5F5F5F5E2F5F5F5F5F5F5F5BEF5F5F5F5F5F5F5F5F5F5F5F5F5F5F5F5E2F5F5F5E2E2E2F5F5F5E2F5F5F5F5F5F5F5F5F5F5F5F5F5F5F5F5BEF5F5F5F5F5F5F5E2F5F5F5F5F5F5F5F5F5F5F5F5F5F5F5F5F5F5F5F52828282828282828282828282828
310
282828282828282828282828282828282828282828282828282828282828282828282828282828282828282828282828282828282828282828282828282828F5F5F5F5F5F5F5F5F5F5F5F5F5F5F5F5F5F5F5F5F5F5E2F5F5F5F5F5F5F5BEF5F5F5F5F5F5F5F5F5F5F5F5F5F5F5F5E2F5F5F5E2E2E2F5F5F5E2F5F5F5F5F5F5
310
F5F5F5F5F5F5F5F5F5F5BEF5F5F5F5F5F5F5E2F5F5F5F5F5F5F5F5F5F5F5F5F5F5F5F5F5F5F5282828F5F5F5F5F5F5F5F5F5F5F5F5F5F5F5F5F5F5F5F5F5F5F5F5F5F5F5F5F5F5F5F5F5F5F5F5F5F5F5F5F5F5F5F5F5F5F5F5F5F5F5F5F5F5F5F5F5F5F5F5F5F5F5F5F5F5F5F5F5F5F5F528282828F5F5F5F5F5F5F5F5F5F5
310
F5F5F5F5F5F5F5F5F5F5F5E2F5F5F5F5F5F5F5BEF5F5F5F5F5F5F5F5F5F5F5F5F5F5F5F5E2F5F5F5E2E2E2F5F5F5E2F5F5F5F5F5F5F5F5F5F5F5F5F5F5F5F5BEF5F5F5F5F5F5F5E2F5F5F5F5F5F5F5F5F5F5F5F5F5F5F5F5F5F528F528F5F5F5F5F5F5F5F5F5F5F5F5F5F5F5F5F5F5F5F5F5F5F5F5F5F5F5F5F5F5F5F5F5F5
310
F5F5F5F5F5F5F5F5F5F5F5F5F5F5F5F5F5F5F5F5F5F5F5F5F5F5F5F5F5F5F5F5F5F5F5F5F5F5F5F5F52828F5F5F5F5F5F5F5F5F5F5F5F5F5F5F5F5F5F5F5F5F5E2F5F5F5F5F5F5F5BEF5F5F5F5F5F5F5F5F5F5F5F5F5F5F5F5E2F5F5F5E2E2E2F5F5F5E2F5F5F5F5F5F5F5F5F5F5F5F5F5F5F5F5BEF5F5F5F5F5F5F5E2F5F5
310
F5F5F5F5F5F5F5F5F5F5F5F5F5F5F528282828F5F528282828282828282828282828282828282828282828282828282828282828282828282828282828282828282828282828282828282828282828282828282828282828282828F5F5F528F528F5F5F5F5F5F5F5F5F5F5F5F5F5F5F5F5F5F5F5F5E2F5F5F5F5F5F5F5BEF5
310
F5F5F5F5F5F5F5F5F5F5F5F5F5F5F5E2F5F5F5E2E2E2F5F5F5E2F5F5F5F5F5F5F5F5F5F5F5F5F5F5F5F5BEF5F5F5F5F5F5F5E2F5F5F5F5F5F5F5F5F5F5F5F5F5F5F5F5F528F528F5F5F528F5E2E2E2E2E2E2E2E2E2E2E2E2E2E2E2E2E2E2E2E2E2E2E2E2E2E2E2E2E2E2E2E2E2E2E2E2E2E2E2E2E2E2E2E2E2E2E2E2E2E2E2
310
E2E2E2E2E2E2E2E2E2E2E2E2E2E2E2F5F528F5F528F528F5F5F5F5F5F5F5F5F5F5F5F5F5F5F5F5F5F5F5F5E2F5F5F5F5F5F5F5BEF5F5F5F5F5F5F5F5F5F5F5F5F5F5F5F5E2F5F5F5E2E2E2F5F5F5E2F5F5F5F5F5F5F5F5F5F5F5F5F5F5F5F5BEF5F5F5F5F5F5F5E2F5F5F5F5F5F5F5F5F5F5F5F5F5F5F5F5F528F528F5F528
310
F5E2E2F5F5F5F5F5F5F5F5F5F5F5F5F5F5F5F5F5F5F5F5F5F5F5F5F5F5F5F5F5F5F5E2F5F5F5F5F5F5F5F5F5F5F5F5F5F5F5F5F5F5F5F5F5F5F5F5F5F5F5F5F5F5F5F5F5E2F528F5F528F5F528F5F5F5F5F5F5F5F5F5F5F5F5F5F5F5F5F5F5F5E2F5F5F5F5F5F5F5BEF5F5F5F5F5F5F5F5F5F5F5F5F5F5F5F5E2F5F5F5E2E2
310
E2F5F5F5E2F5F5F5F5F5F5F5F5F5F5F5F5F5F5F5F5BEF5F5F5F5F5F5F5E2F5F5F5F5F5F5F5F5F5F5F5F5F5F5F5F5F528F528F5F528F5E2F5F5F5F5F5F5F5F5F5F5F5F5F5F5F5F5F5F5F5F5F5F5F5F5F5F5F5F5F5F5F5E2F5F5F5F5F5F5F5F5F5F5F5F5F5F5F5F5F5F5F5F5F5F5F5F5F5F5F5F5F5F5F5F5F5F5F5E228F5F528
310
F5F528F5F5F5F5F5F5F5F5F5F5F5F5F5F5F5F5F5F5F5E2F5F5F5F5F5F5F5BEF5F5F5F5F5F5F5F5F5F5F5F5F5F5F5F5E2F5F5F5E2E2E2F5F5F5E2F5F5F5F5F5F5F5F5F5F5F5F5F5F5F5F5BEF5F5F5F5F5F5F5E2F5F5F5F5F5F5F5F5F5F5F5F5F5F5F5F5F528F528F5F528F5E2F5F5F5F5E2E2E2E2E2E2E2E2E2E2E2E2E2E2E2
310
E2E2E2F5F5F5F5F5F5F5F5E2F5F5F5F5F5F5F5F5F5F5F5F5F5F5F5F5F5F5F5F5F5F5F5F5F5F5F5F5F5F5F5F5F5F5F5F5E228F5F528F5F528F5F5F5F5F5F5F5F5F5F5F5F5F5F5F5F5F5F5F5E2F5F5F5F5F5F5F5BEF5F5F5F5F5F5F5F5F5F5F5F5F5F5F5F5E2F5F5F5E2E2E2F5F5F5E2F5F5F5F5F5F5F5F5F5F5F5F5F5F5F5F5
310
BEF5F5F5F5F5F5F5E2F5F5F5F5F5F5F5F5F5F5F5F5F5F5F5F5F528F528F5F528F5E2F5F5F5F5F5F5E2E2E2E2E2E2E2E2E2E2E2E2E2E2E2E2F5F5F5F5F5F5F5E2F5F5F5F5F5F5F5F5F5F5F5F5F5F5F5F5F5F5F5F5F5F5F5F5F5F5F5F5F5F5F5F5F5F5F5F5F5E228F5F528F5F528F5F5F5F5F5F5F5F5F5F5F5F5F5F5F5F5F5F5
310
F5E2F5F5F5F5F5F5F5BEF5F5F5F5F5F5F5F5F5F5F5F5F5F5F5F5E2F5F5F5E2E2E2F5F5F5E2F5F5F5F5F5F5F5F5F5F5F5F5F5F5F5F5BEF5F5F5F5F5F5F5E2F5F5F5F5F5F5F5F5F5F5F5F5F5F5F5F5F528F528F5F528F5E2F5F5F5F5F5F5F5F5F5F5F5F5E2E2E2E2E2E2E2E2E2E2F5F5F5F5F5F5E2F5F5F5F5F5F5F5F5F5F5F5
310
F5F5F5F5F5F5F5F5F5F5F5F5F5F5F5F5F5F5F5F5F5F5F5F5F5F5F5E228F5F528F5F528F5F5F5F5F5F5F5F5F5F5F5F5F5F5F5F5F5F5F5E2F5F5F5F5F5F5F5BEF5F5F5F5F5F5F5F5F5F5F5F5F5F5F5F5E2F5F5F5E2E2E2F5F5F5E2F5F5F5F5F5F5F5F5F5F5F5F5F5F5F5F5BEF5F5F5F5F5F5F5E2F5F5F5F5F5F5F5F5F5F5F5F5
310
F5F5F5F5F528F528F5F528F5E2F5F5F5F5F5F5F5F5F5F5F5F5F5F5F5F5F5F5F5F5F5F5F5E2E2E2E2E2F5F5F5F5F5F5F5F5F5F5F5F5F5F5F5F5F5F5F5F5F5F5F5F5F5F5F5F5F5F5F5F5F5F5F5F5F5F5F5E228F5F528F5F528F5F5F5F5F5F5F5F5F5F5F5F5F5F5F5F5F5F5F5E2F5F5F5F5F5F5F5BEF5F5F5F5F5F5F5F5F5F5F5
310
F5F5F5F5F5E2F5F5F5E2E2E2F5F5F5E2F5F5F5F5F5F5F5F5F5F5F5F5F5F5F5F5BEF5F5F5F5F5F5F5E2F5F5F5F5F5F5F5F5F5F5F5F5F5F5F5F5F528F528F5F528F5E2F5F5F5F5F5F5F5F5F5F5F5F5F5F5F5F5F5F5F5F5F5F5F5F5F5F5F5F5F5F5F5F5F5F5F5F5F5F5F5F5F5F5F5F5F5F5F5F5F5F5F5F5F5F5F5F5F5F5F5F5F5
310
F5F5F5F5F5F5E228F5F528F5F528F5F5F5F5F5F5F5F5F5F5F5F5F5F5F5F5F5F5F5E2F5F5F5F5F5F5F5BEF5F5F5F5F5F5F5F5F5F5F5F5F5F5F5F5E2F5F5F5E2E2E2F5F5F5F5F5F5F5F5F5F5F5F5F5F5F5F5F5F5F5F5BEF5F5F5F5F5F5F5E2F5F5F5F5F5F5F5F5F5F5F5F5F5F5F5F5F528F528F5F528F5E2F5F5F5F5F5F5F5F5
310
F5F5F5F5F5F5F5F5F5F5F5F5F5F5F5F5F5F5F5F5F5F5F5F5F5F5F5F5F5F5F5F5F5F5F5F5F5F5F5F5F5F5F5F5F5F5F5F5F5F5F5F5F5F5F5F5F5F5F5E228F5F528F5F528F5F5F5F5F5F5F5F5F5F5F5F5F5F5F5F5F5F5F5E2F5F5F5F5F5F5F5BEF5F5F5F5F5F5F5F5F5F5F5F5F5F5F5F5F5F5F5F5E2E2E2F5F5F5F5F5F5F5F5F5
310
F5F5F5F5F5F5F5F5F5F5F5BEF5F5F5F5F5F5F5E2F5F5F5F5F5F5F5F5F5F5F5F5F5F5F5F5F528F528F5F528F5E2F5F5F5F5F5F5F5F5F5F5F5F5F5F5F5F5F5F5F5F5F5F5F5F5F5F5F5F5F5F5F5F5F5F5F5F5F5F5F5F5F5F5F5F5F5F5F5F5F5F5F5F5F5F5F5F5F5F5F5F5F5F5F5F5F5F5F5E228F5F528F5F528F5F5F5F5F5F5F5
310
F5F5F5F5F5F5F5F5F5F5F5F5E2F5F5F5F5F5F5F5BEF5F5F5F5F5F5F5F5F5F5F5F5F5F5F5F5F5F5F5F5E2E2E2F5F5F5F5F5F5F5F5F5F5F5F5F5F5F5F5F5F5F5F5BEF5F5F5F5F5F5F5E2F5F5F5F5F5F5F5F5F5F5F5F5F5F5F5F5F528F528F5F528F5E2F5F5F5F5F5F5F5F5F5F5F5F5F5F5F5F5F5F5F5F5F5F5F5F5F5F5F5F5F5
310
F5F5F5F5F5F5F5F5F5F5F5F5F5F5F5F5F5F5F5F5F5F5F5F5F5F5F5F5F5F5F5F5F5F5F5F5F5F5E228F5F528F5F528F5F5F5F5F5F5F5F5F5F5F5F5F5F5F5F5F5F5F5E2F5F5F5F5F5F5F5BEF5F5F5F5F5F5F5F5F5F5F5F5F5F5F5F5F5F5F5F5E2E2E2F5F5F5F5F5F5F5F5F5F5F5F5F5F5F5F5F5F5F5F5BEF5F5F5F5F5F5F5E2F5
310
F5F5F5F5F5F5F5F5F5F5F5F5F5F5F5F528F528F5F528F5E2F5F5F5F5F5F5F5F5F5F5F5F5F5F5F5F5F5F5F5F5F5F5F5F5F5F5F5F5F5F5F5F5F5F5F5F5F5F5F5F5F5F5F5F5F5F5F5F5F5F5F5F5F5F5F5F5F5F5F5F5F5F5F5F5F5F5F5E228F5F528F5F528F5F5F5F5F5F5F5F5F5F5F5F5F5F5F5F5F5F5F5E2F5F5F5F5F5F5F5BE
310
F5F5F5F5F5F5F5F5F5F5F5F5F5F5F5F5F5F5F5F5E2E2E2F5F5F5F5F5F5F5F5F5F5F5F5F5F5F5F5F5F5F5F5BEF5F5F5F5F5F5F5E2F5F5F5F5F5F5F5F5F5F5F5F5F5F5F5F5F528F528F5F528F5E2F5F5F5F5F5F5F5F5F5F5F5F5F5F5F5F5F5F5F5F5F5F5F5F5F5F5F5F5F5F5F5F5F5F5F5F5F5F5F5F5F5F5F5F5F5F5F5F5F5F5
310
F5F5F5F5F5F5F5F5F5F5F5F5F5F5F5F5F5E228F5F528F5F528F5F5F5F5F5F5F5F5F5F5F5F5F5F5F5F5F5F5F5E2F5F5F5F5F5F5F5BEF5F5F5F5F5F5F5F5F5F5F5F5F5F5F5F5F5F5F5F5E2E2E2F5F5F5F5F5F5F5F5F5F5F5F5F5F5F5F5F5F5F5F5BEF5F5F5F5F5F5F5E2F5F5F5F5F5F5F5F5F5F5F5F5F5F5F5F5F528F528F5F5
310
28F5E2F5F5F5F5F5F5F5F5F5F5F5F5F5F5F5F5F5F5F5F5F5F5F5F5F5F5F5F5F5F5F5F5F5F5F5F5F5F5F5F5F5F5F5F5F5F5F5F5F5F5F5F5F5F5F5F5F5F5F5F5F5F5F5F5F5F5F5E228F5F528F5F528F5F5F5F5F5F5F5F5F5F5F5F5F5F5F5F5F5F5F5E2F5F5F5F5F5F5F5BEF5F5F5F5F5F5F5F5F5F5F5F5F5F5F5F5F5F5F5F5E2
310
E2E2F5F5F5F5F5F5F5F5F5F5F5F5F5F5F5F5F5F5F5F5BEF5F5F5F5F5F5F5E2F5F5F5F5F5F5F5F5F5F5F5F5F5F5F5F5F528F528F5F528F5E2F5F5F5F5F5F5F5F5F5F5F5F5F5F5F5F5F5F5F5F5F5F5F5F5F5F5F5F5F5F5F5F5F5F5F5F5F5F5F5F5F5F5F5F5F5F5F5F5F5F5F5F5F5F5F5F5F5F5F5F5F5F5F5F5F5F5F5E228F5F5
310
28F5F528F5F5F5F5F5F5F5F5F5F5F5F5F5F5F5F5F5F5F5E2F5F5F5F5F5F5F5BEF5F5F5F5F5F5F5F5F5F5F5F5F5F5F5F5F5F5F5F5E2E2E2F5F5F5F5F5F5F5F5F5F5F5F5F5F5F5F5F5F5F5F5BEF5F5F5F5F5F5F5E2F5F5F5F5F5F5F5F5F5F5F5F5F5F5F5F5F528F528F5F528F5E2F5F5F5F5F5F5F5F5F5F5F5F5F5F5F5F5F5F5
310
F5F5F5F5F5F5F5F5F5F5F5F5F5F5F5F5F5F5F5F5F5F5F5F5F5F5F5F5F5F5F5F5F5F5F5F5F5F5F5F5F5F5F5F5F5F5F5F5F5E228F5F528F5F528F5F5F5F5F5F5F5F5F5F5F5F5F5F5F5F5F5F5F5E2F5F5F5F5F5F5F5BEF5F5F5F5F5F5F5F5F5F5F5F5F5F5F5F5F5F5F5F5E2E2E2F5F5F5F5F5F5F5F5F5F5F5F5F5F5F5F5F5F5F5
310
F5BEF5F5F5F5F5F5F5E2F5F5F5F5F5F5F5F5F5F5F5F5F5F5F5F5F528F528F5F528F5E2F5F5F5F5F5F5F5F5F5F5F5F5F5F5F5F5F5F5F5F5F5F5F5F5F5F5F5F5F5F5F5F5F5F5F5F5F5F5F5F5F5F5F5F5F5F5F5F5F5F5F5F5F5F5F5F5F5F5F5F5F5F5F5F5F5F5F5E228F5F528F5F528F5F5F5F5F5F5F5F5F5F5F5F5F5F5F5F5F5
310
F5F5E2F5F5F5F5F5F5F5BEF5F5F5F5F5F5F5F5F5F5F5F5F5F5F5F5F5F5F5F5E2E2E2F5F5F5F5F5F5F5F5F5F5F5F5F5F5F5F5F5F5F5F5BEF5F5F5F5F5F5F5E2F5F5F5F5F5F5F5F5F5F5F5F5F5F5F5F5F528F528F5F528F5E2F5F5F5F5F5F5F5F5F5F5F5F5F5F5F5F5F5F5F5F5F5F5F5F5F5F5F5F5F5F5F5F5F5F5F5F5F5F5F5
310
F5F5F5F5F5F5F5F5F5F5F5F5F5F5F5F5F5F5F5F5F5F5F5F5F5F5F5F5E228F5F528F5F528F5F5F5F5F5F5F5F5F5F5F5F5F5F5F5F5F5F5F5E2F5F5F5F5F5F5F5BEF5F5F5F5F5F5F5F5F5F5F5F5F5F5F5F5F5F5F5F5E2E2E2F5F5F5E2F5F5F5F5F5F5F5F5F5F5F5F5F5F5F5F5BEF5F5F5F5F5F5F5E2F5F5F5F5F5F5F5F5F5F5F5
310
F5F5F5F5F5F528F528F5F528F5E2F5F5F5F5F5F5F5F5F5F5F5F5F5F5F5F5F5F5F5F5F5F5F5F5F5F5F5F5F5F5F5F5F5F5F5F5F5F5F5F5F5F5F5F5F5F5F5F5F5F5F5F5F5F5F5F5F5F5F5F5F5F5F5F5F5F5F5E228F5F528F5F528F5F5F5F5F5F5F5F5F5F5F5F5F5F5F5F5F5F5F5E2F5F5F5F5F5F5F5BEF5F5F5F5F5F5F5F5F5F5
310
F5F5F5F5F5F5E2F5F5F5E2E2E2F5F5F5E2F5F5F5F5F5F5F5F5F5F5F5F5F5F5F5F5BEF5F5F5F5F5F5F5E2F5F5F5F5F5F5F5F5F5F5F5F5F5F5F5F5F528F528F5F528F5E2F5F5F5F5F5F5F5F5F5F5F5F5F5F5F5F5F5F5F5F5F5F5F5F5F5F5F5F5F5F5F5F5F5F5F5F5F5F5F5F5F5F5F5F5F5F5F5F5F5F5F5F5F5F5F5F5F5F5F5F5
310
F5F5F5F5F5F5F5E228F5F528F5F528F5F5F5F5F5F5F5F5F5F5F5F5F5F5F5F5F5F5F5E2F5F5F5F5F5F5F5BEF5F5F5F5F5F5F5F5F5F5F5F5F5F5F5F5E2F5F5F5E2E2E2F5F5F5E2F5F5F5F5F5F5F5F5F5F5F5F5F5F5F5F5BEF5F5F5F5F5F5F5E2F5F5F5F5F5F5F5F5F5F5F5F5F5F5F5F5F528F528F5F528F5E2F5F5F5F5F5F5F5
310
F5F5F5F5F5F5F5F5F5F5F5F5F5F5F5F5F5F5F5F5F5F5F5F5F5F5F5F5F5F5F5F5F5F5F5F5F5F5F5F5F5F5F5F5F5F5F5F5F5F5F5F5F5F5F5F5F5F5F5F5E228F5F528F5F528F5F5F5F5F5F5F5F5F5F5F5F5F5F5F5F5F5F5F5E2F5F5F5F5F5F5F5BEF5F5F5F5F5F5F5F5F5F5F5F5F5F5F5F5E2F5F5F5E2E2E2F5F5F5E2F5F5F5F5
310
F5F5F5F5F5F5F5F5F5F5F5F5BEF5F5F5F5F5F5F5E2F5F5F5F5F5F5F5F5F5F5F5F5F5F5F5F5F528F528F5F528F5E2F5F5F5F5F5F5F5F5F5F5F5F5F5F5F5F5F5F5F5F5F5F5F5F5F5F5F5F5F5F5F5F5F5F5F5F5F5F5F5F5F5F5F5F5F5F5F5F5F5F5F5F5F5F5F5F5F5F5F5F5F5F5F5F5F5F5F5E228F5F528F5F528F5F5F5F5F5F5
310
F5F5F5F5F5F5F5F5F5F5F5F5F5E2F5F5F5F5F5F5F5BEF5F5F5F5F5F5F5F5F5F5F5F5F5F5F5F5E2F5F5F5E2E2E2F5F5F5E2F5F5F5F5F5F5F5F5F5F5F5F5F5F5F5F5BEF5F5F5F5F5F5F5E2F5F5F5F5F5F5F5F5F5F5F5F5F5F5F5F5F528F528F5F528F5E2F5F5F5F5F5F5F5F5F5F5F5F5F5F5F5F5F5F5F5F5F5F5F5F5F5F5F5F5
310
F5F5F5F5F5F5F5F5F5F5F5F5F5F5F5F5F5F5F5F5F5F5F5F5F5F5F5F5F5F5F5F5F5F5F5F5F5F5F5E228F5F528F5F528F5F5F5F5F5F5F5F5F5F5F5F5F5F5F5F5F5F5F5E2F5F5F5F5F5F5F5BEF5F5F5F5F5F5F5F5F5F5F5F5F5F5F5F5E2F5F5F5E2E2E2F5F5F5E2F5F5F5F5F5F5F5F5F5F5F5F5F5F5F5F5BEF5F5F5F5F5F5F5E2
310
F5F5F5F5F5F5F5F5F5F5F5F5F5F5F5F5F528F528F5F528F5E2F5F5F5F5F5F5F5F5F5F5F5F5F5F5F5F5F5F5F5F5F5F5F5F5F5F5F5F5F5F5F5F5F5F5F5F5F5F5F5F5F5F5F5F5F5F5F5F5F5F5F5F5F5F5F5F5F5F5F5F5F5F5F5F5F5F5F5E228F5F528F5F528F5F5F5F5F5F5F5F5F5F5F5F5F5F5F5F5F5F5F5E2F5F5F5F5F5F5F5
310
BEF5F5F5F5F5F5F5F5F5F5F5F5F5F5F5F5E2F5F5F5E2E2E2F5F5F5E2F5F5F5F5F5F5F5F5F5F5F5F5F5F5F5F5BEF5F5F5F5F5F5F5E2F5F5F5F5F5F5F5F5F5F5F5F5F5F5F5F5F528F528F5F528F5E2F5F5F5F5F5F5F5F5F5F5F5F5F5F5F5F5F5F5F5F5F5F5F5F5F5F5F5F5F5F5F5F5F5F5F5F5F5F5F5F5F5F5F5F5F5F5F5F5F5
310
F5F5F5F5F5F5F5F5F5F5F5F5F5F5F5F5F5F5E228F5F528F5F528F5F5F5F5F5F5F5F5F5F5F5F5F5F5F5F5F5F5F5E2F5F5F5F5F5F5F5BEF5F5F5F5F5F5F5F5F5F5F5F5F5F5F5F5E2F5F5F5E2E2E2F5F5F5E2F5F5F5F5F5F5F5F5F5F5F5F5F5F5F5F5BEF5F5F5F5F5F5F5E2F5F5F5F5F5F5F5F5F5F5F5F5F5F5F5F5F528F528F5
310
F528F5E2F5F5F5F5F5F5F5F5F5F5F5F5F5F5F5F5F5F5F5F5F5F5F5F5F5F5F5F5F5F5F5F5F5F5F5F5F5F5F5F5F5F5F5F5F5F5F5F5F5F5F5F5F5F5F5F5F5F5F5F5F5F5F5F5F5F5F5E228F5F528F5F528F5F5F5F5F5F5F5F5F5F5F5F5F5F5F5F5F5F5F5E2F5F5F5F5F5F5F5BEF5F5F5F5F5F5F5F5F5F5F5F5F5F5F5F5E2F5F5F5
310
E2E2E2F5F5F5E2F5F5F5F5F5F5F5F5F5F5F5F5F5F5F5F5BEF5F5F5F5F5F5F5E2F5F5F5F5F5F5F5F5F5F5F5F5F5F5F5F5F528F528F5F528F5E2F5F5F5F5F5F5F5F5F5F5F5F5F5F5F5F5F5F5F5F5F5F5F5F5F5F5F5F5F5F5F5F5F5F5F5F5F5F5F5F5F5F5F5F5F5F5F5F5F5F5F5F5F5F5F5F5F5F5F5F5F5F5F5F5F5F5F5E228F5
310
F528F5F528F5F5F5F5F5F5F5F5F5F5F5F5F5F5F5F5F5F5F5E2F5F5F5F5F5F5F5BEF5F5F5F5F5F5F5F5F5F5F5F5F5F5F5F5E2F5F5F5E2E2E2F5F5F5E2F5F5F5F5F5F5F5F5F5F5F5F5F5F5F5F5BEF5F5F5F5F5F5F5E2F5F5F5F5F5F5F5F5F5F5F5F5F5F5F5F5F528F528F5F528F5E2F5F5F5F5F5F5F5F5F5F5F5F5F5F5F5F5F5
310
F5F5F5F5F5F5F5F5F5F5F5F5F5F5F5F5F5F5F5F5F5F5F5F5F5F5F5F5F5F5F5F5F5F5F5F5F5F5F5F5F5F5F5F5F5F5F5F5F5F5E228F5F528F5F528F5F5F5F5F5F5F5F5F5F5F5F5F5F5F5F5F5F5F5E2F5F5F5F5F5F5F5BEF5F5F5F5F5F5F5F5F5F5F5F5F5F5F5F5E2F5F5F5E2E2E2F5F5F5E2F5F5F5F5F5F5F5F5F5F5F5F5F5F5
310
F5F5BEF5F5F5F5F5F5F5E2F5F5F5F5F5F5F5F5F5F5F5F5F5F5F5F5F528F528F5F528F5E2F5F5F5F5F5F5F5F5F5F5F5F5F5F5F5F5F5F5F5F5F5F5F5F5F5F5F5F5F5F5F5E2E2E2E2E2F5F5F5F5F5F5F5F5F5F5F5F5F5F5F5F5F5F5F5F5F5F5F5F5F5F5F5F5F5F5F5E228F5F528F5F528F5F5F5F5F5F5F5F5F5F5F5F5F5F5F5F5
310
F5F5F5E2F5F5F5F5F5F5F5BEF5F5F5F5F5F5F5F5F5F5F5F5F5F5F5F5E2F5F5F5E2E2E2F5F5F5E2F5F5F5F5F5F5F5F5F5F5F5F5F5F5F5F5BEF5F5F5F5F5F5F5E2F5F5F5F5F5F5F5F5F5F5F5F5F5F5F5F5F528F528F5F528F5E2F5F5F5F5F5F5F5F5F5F5F5F5F5F5F5F5F5F5F5F5F5F5F5F5F5F5F5F5F5F5E2F5E2E2E2E2E2F5
310
F5F5F5F5F5F5F5F5F5F5F5F5F5F5F5F5F5F5F5F5F5F5F5F5F5F5F5F5F5E228F5F528F5F528F5F5F5F5F5F5F5F5F5F5F5F5F5F5F5F5F5F5F5E2F5F5F5F5F5F5F5BEF5F5F5F5F5F5F5F5F5F5F5F5F5F5F5F5E2F5F5F5E2E2E2F5F5F5E2F5F5F5F5F5F5F5F5F5F5F5F5F5F5F5F5BEF5F5F5F5F5F5F5E2F5F5F5F5F5F5F5F5F5F5
310
F5F5F5F5F5F5F528F528F5F528F5E2F5F5F5F5F5F5F5F5F5F5F5F5F5F5F5F5F5F5F5F5F5F5F5F5F5F5F5F5F5E2E2E2F5F5E2E2E2F5F5F5F5F5F5F5F5F5F5F5F5F5F5F5F5F5F5F5F5F5F5F5F5F5F5F5F5F5F5E228F5F528F5F528F5F5F5F5F5F5F5F5F5F5F5F5F5F5F5F5F5F5F5E2F5F5F5F5F5F5F5BEF5F5F5F5F5F5F5F5F5
310
F5F5F5F5F5F5F5E2F5F5F5E2E2E2F5F5F5E2F5F5F5F5F5F5F5F5F5F5F5F5F5F5F5F5BEF5F5F5F5F5F5F5E2F5F5F5F5F5F5F5F5F5F5F5F5F5F5F5F5F528F528F5F528F5E2F5F5F5F5F5F5F5F5F5F5F5F5F5F5F5F5F5F5F5F5F5F5F5F5F5F5F5F5F5E2E2F5F5F5F5E2F5E2F5F5F5F5F5F5F5F5F5F5F5F5F5F5F5F5F5F5F5F5F5
310
F5F5F5F5F5F5F5F5E228F5F528F5F528F5F5F5F5F5F5F5F5F5F5F5F5F5F5F5F5F5F5F5E2F5F5F5F5F5F5F5BEF5F5F5F5F5F5F5F5F5F5F5F5F5F5F5F5E2F5F5F5E2E2E2F5F5F5E2F5F5F5F5F5F5F5F5F5F5F5F5F5F5F5F5BEF5F5F5F5F5F5F5E2F5F5F5F5F5F5F5F5F5F5F5F5F5F5F5F5F528F528F5F528F5E2F5F5F5F5F5F5
310
F5F5F5F5F5F5F5F5F5F5F5F5F5F5F5F5F5F5F5F5F52D2DE2E22D2D2D2D2DE2E22DF5F5F5F5F5F5F5F5F5F5F5F5F5F5F5F5F5F5F5F5F5F5F5F5F5F5F5F5E228F5F528F5F528F5F5F5F5F5F5F5F5F5F5F5F5F5F5F5F5F5F5F5E2F5F5F5F5F5F5F5BEF5F5F5F5F5F5F5F5F5F5F5F5F5F5F5F5E2F5F5F5E2E2E2F5F5F5E2F5F5F5
310
F5F5F5F5F5F5F5F5F5F5F5F5F5BEF5F5F5F5F5F5F5E2F5F5F5F5F5F5F5F5F5F5F5F5F5F5F5F5F528F528F5F528F5E2F5F5F5F5F5F5F5F5F5F5F5F5F5F5F5F5F5F5F5F5F5F5F5F5F5F5F5F5F5E2E2F5F5F5F5E2F5E2F5F5F5F5F5F5F5F5F5F5F5F5F5F5F5F5F5F5F5F5F5F5F5F5F5F5F5F5F5E228F5F528F5F528F5F5F5F5F5
310
F5F5F5F5F5F5F5F5F5F5F5F5F5F5E2F5F5F5F5F5F5F5BEF5F5F5F5F5F5F5F5F5F5F5F5F5F5F5F5E2F5F5F5E2E2E2F5F5F5F5F5F5F5F5F5F5F5F5F5F5F5F5F5F5F5F5BEF5F5F5F5F5F5F5E2F5F5F5F5F5F5F5F5F5F5F5F5F5F5F5F5F528F528F5F528F5E2F5F5F5F5F5F5F5F5F5F5F5F5F5F5F5F5F5F5F5F5F5F5F5F5F5F5F5
310
F5F5E2E2E2F5F5E2E2E2F5F5F5F5F5F5F5F5F5F5F5F5F5F5F5F5F5F5F5F5F5F5F5F5F5F5F5F5F5F5E228F5F528F5F528F5F5F5F5F5F5F5F5F5F5F5F5F5F5F5F5F5F5F5E2F5F5F5F5F5F5F5BEF5F5F5F5F5F5F5F5F5F5F5F5F5F5F5F5F5F5F5F5E2E2E2F5F5F5F5F5F5F5F5F5F5F5F5F5F5F5F5F5F5F5F5BEF5F5F5F5F5F5F5
310
E2F5F5F5F5F5F5F5F5F5F5F5F5F5F5F5F5F528F528F5F528F5E2F5F5F5F5F5F5F5F5F5F5F5F5F5F5F5F5F5F5F5F5F5F5F5F5F5F5F5F5F5F5E2F5E2E2E2E2E2F5F5F5F5F5F5F5F5F5F5F5F5F5F5F5F5F5F5F5F5F5F5F5F5F5F5F5F5F5F5E228F5F528F5F528F5F5F5F5F5F5F5F5F5F5F5F5F5F5F5F5F5F5F5E2F5F5F5F5F5F5
310
F5BEF5F5F5F5F5F5F5F5F5F5F5F5F5F5F5F5F5F5F5F5E2E2E2F5F5F5F5F5F5F5F5F5F5F5F5F5F5F5F5F5F5F5F5BEF5F5F5F5F5F5F5E2F5F5F5F5F5F5F5F5F5F5F5F5F5F5F5F5F528F528F5F528F5E2F5F5F5F5F5F5F5F5F5F5F5F5F5F5F5F5F5F5F5F5F5F5F5F5F5F5F5F5F5F5F5E2E2E2E2E2F5F5F5F5F5F5F5F5F5F5F5F5
310
F5F5F5F5F5F5F5F5F5F5F5F5F5F5F5F5F5F5F5E228F5F528F5F528F5F5F5F5F5F5F5F5F5F5F5F5F5F5F5F5F5F5F5E2F5F5F5F5F5F5F5BEF5F5F5F5F5F5F5F5F5F5F5F5F5F5F5F5F5F5F5F5E2E2E2F5F5F5F5F5F5F5F5F5F5F5F5F5F5F5F5F5F5F5F5BEF5F5F5F5F5F5F5E2F5F5F5F5F5F5F5F5F5F5F5F5F5F5F5F5F528F528
310
F5F528F5E2F5F5F5F5F5F5F5F5F5F5F5F5F5F5F5F5F5F5F5F5F5F5F5F5F5F5F5F5F5F5F5F5F5F5F5F5F5F5F5F5F5F5F5F5F5F5F5F5F5F5F5F5F5F5F5F5F5F5F5F5F5F5F5F5F5F5F5E228F5F528F5F528F5F5F5F5F5F5F5F5F5F5F5F5F5F5F5F5F5F5F5E2F5F5F5F5F5F5F5BEF5F5F5F5F5F5F5F5F5F5F5F5F5F5F5F5F5F5F5
310
F5E2E2E2F5F5F5F5F5F5F5F5F5F5F5F5F5F5F5F5F5F5F5F5BEF5F5F5F5F5F5F5E2F5F5F5F5F5F5F5F5F5F5F5F5F5F5F5F5F528F528F5F528F5E2F5F5F5F5F5F5F5F5F5F5F5F5F5F5F5F5F5F5F5F5F5F5F5F5F5F5F5F5F5F5F5F5F5F5F5F5F5F5F5F5F5F5F5F5F5F5F5F5F5F5F5F5F5F5F5F5F5F5F5F5F5F5F5F5F5F5F5E228
310
F5F528F5F528F5F5F5F5F5F5F5F5F5F5F5F5F5F5F5F5F5F5F5E2F5F5F5F5F5F5F5BEF5F5F5F5F5F5F5F5F5F5F5F5F5F5F5F5F5F5F5F5E2E2E2F5F5F5F5F5F5F5F5F5F5F5F5F5F5F5F5F5F5F5F5BEF5F5F5F5F5F5F5E2F5F5F5F5F5F5F5F5F5F5F5F5F5F5F5F5F528F528F5F528F5E2F5F5F5F5F5F5F5F5F5F5F5F5F5F5F5F5
310
F5F5F5F5F5F5F5F5F5F5F5F5F5F5F5F5F5F5F5F5F5F5F5F5F5F5F5F5F5F5F5F5F5F5F5F5F5F5F5F5F5F5F5F5F5F5F5F5F5F5E2F528F5F528F5F528F5F5F5F5F5F5F5F5F5F5F5F5F5F5F5F5F5F5F5E2F5F5F5F5F5F5F5BEF5F5F5F5F5F5F5F5F5F5F5F5F5F5F5F5F5F5F5F5E2E2E2F5F5F5F5F5F5F5F5F5F5F5F5F5F5F5F5F5
310
F5F5F5BEF5F5F5F5F5F5F5E2F5F5F5F5F5F5F5F5F5F5F5F5F5F5F5F5F528F528F5F5F528F5E2E2E2E2E2E2E2E2E2E2E2E2E2E2E2E2E2E2E2E2E2E2E2E2E2E2E2E2E2E2E2E2E2E2E2E2E2E2E2E2E2E2E2E2E2E2E2E2E2E2E2E2E2E2E2E2E2E2E2E2E2E2E2E2E2BEBEBEBEBEBEBEBEBEBEBEBEBEBEBEBEBEBEBEBEBEBEF5F5F5
310
F5F5F5F5E2F5F5F5F5F5F5F5BEF5F5F5F5F5F5F5F5F5F5F5F5F5F5F5F5F5F5F5F5E2E2E2F5F5F5F5F5F5F5F5F5F5F5F5F5F5F5F5F5F5F5F5BEF5F5F5F5F5F5F5E2F5F5F5F5F5F5F5F5F5F5F5F5F5F5F5F5F528F528F5F5F5282828282828282828282828282828282828282828282828282828282828282828282828282828
310
2828282828282828282828282828282828282828282828282828282828282828F5F528F5F528F5F5F5F5F5F5F5F5F5F5F5BEF5F5F5F5F5F5F5E2F5F5F5F5F5F5F5BEF5F5F5F5F5F5F5F5F5F5F5F5F5F5F5F5F5F5F5F5E2E2E2F5F5F5F5F5F5F5F5F5F5F5F5F5F5F5F5F5F5F5F5BEF5F5F5F5F5F5F5E2F5F5F5F5F5F5F5F5F5
310
F5F5F5F5F5F5F5F528F5F528F5F5F5F5F5F5F5F5F5F5F5F5F5F5F5F5F5F5F5F5F5F5F5F5F5F5F5F5F5F5F5F5F5F5F5F5F5F5F5F5F5F5F5F5F5F5F5F5F5F5F5F5F5F5F5F5F5F5F5F5F5F5F5F5F5F5F5F5F5F5F5F5F5F52828F5F528F5F5F5F5F5F5F5F5F5BEBEBEBEBEF5F5F5F5F5E2F5F5F5F5F5F5F5BEF5F5F5F5F5F5F5F5
310
F5F5F5F5F5F5F5F5F5F5F5F5E2E2E2F5F5F5E2F5F5F5F5F5F5F5F5F5F5F5F5F5F5F5F5BEF5F5F5F5F5F5F5E2F5F5F5F5F5F5F5F5F5F5F5F5F5F5F5F5F528F5F5F528F5F5F5F5F5F5F5F5F5F5F5F5F5F5F5F5F5F5F5F5F5F5F5F5F5F5F5F5F5F5F5F5F5F5F5F5F5F5F5F5F5F5F5F5F5F5F5F5F5F5F5F5F5F5F5F5F5F5F5F5F5
310
F5F5F5F5F5F5F5F5F5F5F5F528F5F5F528F5F5F5F5F5F5F5F5F5BEBEBEBEBEF5F5F5F5F5E2F5F5F5F5F5F5F5BEF5F5F5F5F5F5F5F5F5F5F5F5F5F5F5F5E2F5F5F5E2E2E2F5F5F5E2F5F5F5F5F5F5F5F5F5F5F5F5F5F5F5F5BEF5F5F5F5F5F5F5E2F5F5F5F5F5F5F5F5F5F5F5F5F5F5F5F5F528F5F5F528F5F5F5F5F5F5F5F5
310
F5F5F5F5F5F5F5F5F5F5F5F5F5F5F5F5F5F5F5F5F5F5F5F5F5F5F5F5F5F5F5F5F5F5F5F5F5F5F5F5F5F5F5F5F5F5F5F5F5F5F5F5F5F5F5F5F5F5F5F5F5F5F5F528F5F5F5F528F5F5F5F5F5F5F5F5F5F5F5BEF5F5F5F5F5F5F5E2F5F5F5F5F5F5F5BEF5F5F5F5F5F5F5F5F5F5F5F5F5F5F5F5E2F5F5F5E2E2E2F5F5F5E2F5F5
310
F5F5F5F5F5F5F5F5F5F5F5F5F5F5BEF5F5F5F5F5F5F5E2F5F5F5F5F5F5F5F5F5F5F5F5F5F5F5F5F5BE282828282828282828282828282828282828282828282828282828282828282828282828282828282828282828282828282828282828282828282828282828282828282828282828282828282828282828BEBEBEBEBE
310
BEBEBEBEBEBEBEBEF5F5F5F5F5F5F5E2F5F5F5F5F5F5F5BEF5F5F5F5F5F5F5F5F5F5F5F5F5F5F5F5E2F5F5F5E2E2E2F5F5F5E2F5F5F5F5F5F5F5F5F5F5F5F5F5F5F5F5BEF5F5F5F5F5F5F5E2F5F5F5F5F5F5F5F5F5F5F5F5F5F5F5F5F5BEF5F5F5F5F5F5F5F5F5F5F5F5F5F5F5F5F5F5F5F5F5F5F5F5F5F5F5F5F5F5F5F5F5
310
F5F5F5F5F5F5F5F5F5F5F5F5F5F5F5F5F5F5F5F5F5E2F5F5F5F5F5F5F5F5F5F5F5F5F5F5F5F5F5F5F5F5F5F5F5F5F5F5BEF5F5F5F5F5F5F5F5F5F5F5F5F5F5F5F5F5F5F5E2F5F5F5F5F5F5F5BEF5F5F5F5F5F5F5F5F5F5F5F5F5F5F5F5E2F5F5F5E2E2E2F5F5F5E2F5F5F5F5F5F5F5F5F5F5F5F5F5F5F5F5BEF5F5F5F5F5F5
310
F5E2F5F5F5F5F5F5F5F5F5F5F5F5F5F5F5F5F5BEF5F5F5F5F5F5F5F5F5F5F5F5F5F5F5F5F5F5F5F5F5F5F5F5F5F5F5F5F5F5F5F5F5F5F5F5F5F5F5F5F5F5F5F5F5F5F5F5F5F5F5F5F5F5F5E2F5F5F5F5F5F5F5F5F5F5E2E2E2E2E2E2E2E2E2E2F5F5F5F5F5BEF5F5F5F5F5F5F5F5F5F5F5F5F5F5F5F5F5F5F5E2F5F5F5F5F5
310
F5F5BEF5F5F5F5F5F5F5F5F5F5F5F5F5F5F5F5E2F5F5F5E2E2E2F5F5F5E2F5F5F5F5F5F5F5F5F5F5F5F5F5F5F5F5BEF5F5F5F5F5F5F5E2F5F5F5F5F5F5F5F5F5F5F5F5F5F5F5F5F5BEF5F5F5F5F5F5F5F5F5F5F5F5F5F5F5F5F5F5F5F5F5F5F5F5F5F5F5F5F5F5F5F5F5F5F5F5F5F5F5F5F5F5F5F5F5F5F5F5F5F5F5F5F5F5
310
F5F5E2E2F5F5F5F5F5F5F5F5E2E2E2E2E2E2E2E2E2E2F5F5F5F5F5BEF5F5F5F5F5F5F5F5F5F5F5F5F5F5F5F5F5F5F5E2F5F5F5F5F5F5F5BEF5F5F5F5F5F5F5F5F5F5F5F5F5F5F5F5E2F5F5F5E2E2E2F5F5F5E2F5F5F5F5F5F5F5F5F5F5F5F5F5F5F5F5BEF5F5F5F5F5F5F5E2F5F5F5F5F5F5F5F5F5F5F5F5F5F5F5F5F5BEF5
310
F5F5F5F5F5F5F5F5F5F5F5F5F5F5F5F5F5F5F5F5F5F5F5F5F5F5F5F5F5F5F5F5F5F5F5F5F5F5F5F5F5F5F5F5F5F5F5F5F5F5F5F5F5F5F5F5F5E2F5F5F5F5F5F5F5E2E2E2E2E2E2E2E2E2F5F5F5F5F5F5BEF5F5F5F5F5F5F5F5F5F5F5F5F5F5F5F5F5F5F5E2F5F5F5F5F5F5F5BEF5F5F5F5F5F5F5F5F5F5F5F5F5F5F5F5E2F5
310
F5F5E2E2E2F5F5F5E2F5F5F5F5F5F5F5F5F5F5F5F5F5F5F5F5BEF5F5F5F5F5F5F5E2F5F5F5F5F5F5F5F5F5F5F5F5F5F5F5F5F5BEF5F5F5F5F5F5F5F5F5F5F5F5F5F5F5F5F5F5F5F5F5F5F5F5F5F5F5F5F5F5F5F5F5F5F5F5F5F5F5F5F5F5F5F5F5F5F5F5F5F5F5F5F5F5F5F5F5F5F5E2E2E2E2E2E2E2E2E2E2E2E2E2E2E2F5
310
F5F5F5F5F5F5BEF5F5F5F5F5F5F5F5F5F5F5F5F5F5F5F5F5F5F5E2F5F5F5F5F5F5F5BEF5F5F5F5F5F5F5F5F5F5F5F5F5F5F5F5E2F5F5F5E2E2E2F5F5F5E2F5F5F5F5F5F5F5F5F5F5F5F5F5F5F5F5BEF5F5F5F5F5F5F5E2F5F5F5F5F5F5F5F5F5F5F5F5F5F5F5F5F5BEF5F5F5F5F5F5F5F5F5F5F5F5F5F5F5F5F5F5F5F5F5F5
310
F5F5F5F5F5F5F5F5F5F5F5F5F5F5F5F5F5F5F5F5F5F5F5F5F5F5F5F5F5F5F5F5F5F5F5F5F5F5F5F5F5F5F5F5F5F5F5F5F5F5F5F5F5F5F5F5F5F5F5BEF5F5F5F5F5F5F5F5F5F5F5F5F5F5F5F5F5F5F5E2F5F5F5F5F5F5F5BEF5F5F5F5F5F5F5F5F5F5F5F5F5F5F5F5E2F5F5F5E2E2E2F5F5F5E2F5F5F5F5F5F5F5F5F5F5F5F5
310
F5F5F5F5BEF5F5F5F5F5F5F5E2F5F5F5F5F5F5F5F5F5F5F5F5F5F5F5F5F5BEF5F5F5F5F5F5F5F5F5F5F5F5F5F5F5F5F5F5F5F5F5F5F5F5F5F5F5F5F5F5F5F5F5F5F5F5F5F5F5F5F5F5F5F5F5F5F5F5F5F5F5F5F5F5F5F5F5F5F5F5F5F5F5F5F5F5F5F5F5F5F5F5F5F5F5F5F5F5F5F5F5BEF5F5F5F5F5F5F5F5F5F5F5F5F5F5
310
F5F5F5F5F5E2F5F5F5F5F5F5F5BEF5F5F5F5F5F5F5F5F5F5F5F5F5F5F5F5E2F5F5F5E2E2E2F5F5F5E2F5F5F5F5F5F5F5F5F5F5F5F5F5F5F5F5BEF5F5F5F5F5F5F5E2F5F5F5F5F5F5F5F5F5F5F5F5F5F5F5F5F5BEBEBEBEBEBEBEBEBEBEBEBEBEBEBEBEBEBEBEBEBEBEBEBEBEBEBEBEBEBEBEBEBEBEBEBEBEBEBEBEBEBEBEBE
310
BEBEBEBEBEBEBEBEBEBEBEBEBEBEBEBEBEBEBEBEBEBEBEBEBEBEBEBEBEBEBEBEBEBEBEBEBEBEBEF5F5F5F5F5F5F5F5F5F5F5F5F5F5F5F5F5F5F5E2F5F5F5F5F5F5F5BEF5F5F5F5F5F5F5F5F5F5F5F5F5F5F5F5E2F5F5F5E2E2E2F5F5F5E2F5F5F5F5F5F5F5F5F5F5F5F5F5F5F5F5BEF5F5F5F5F5F5F5E2F5F5F5F5F5F5F5F5
310
F5F5F5F5F5F5F5F5F5F5F5F5F5F5F5F5F5F5F5F5F5F5F5F5F5F5F5F5F5F5F5F5F5F5F5F5F5F5F5F5F5F5F5F5F5F5F5BEBEBEBEBEBEF5F5F5F5F5F5F5F5F5F5F5F5F5F5F5F5F5F5F5F5F5F5F5F5F5F5F5F5F5F5F5F5F5F5F5F5F5F5F5F5F5F5F5F5F5F5F5F5F5F5F5F5F5F5F5F5F5F5E2F5F5F5F5F5F5F5BEF5F5F5F5F5F5F5
310
F5F5F5F5F5F5F5F5F5E2F5F5F5E2E2E2F5F5F5E2F5F5F5F5F5F5F5F5F5F5F5F5F5F5F5F5BEF5F5F5F5F5F5F5E2F5F5F5F5F5F5F5F5F5F5F5F5F5F5F5F5F5F5F5F5F5F5F5F5F5F5F5F5F5F5F5F5F5F5F5F5F5F5F5F5F5F5F5F5F5F5F5F5F5F5F5F5F5F5F5F5F5F5F5F5F5F5F5F5F5F5F5F5F5F5F5F5F5F5F5F5F5F5F5F5F5F5
310
F5F5F5F5F5F5F5F5F5F5F5F5F5F5F5F5F5F5F5F5F5F5F5F5F5F5F5F5F5F5F5F5F5F5F5F5F5E2F5F5F5F5F5F5F5BEF5F5F5F5F5F5F5F5F5F5F5F5F5F5F5F5E2F5F5F5E2E2E2F5F5F5E2F5F5F5F5F5F5F5F5F5F5F5F5F5F5F5F5BEF5F5F5F5F5F5F5E2F5F5F5F5F5F5F5F5F5F5F5F5F5F5F5F5F5F5F5F5F5F5F5F5F5F5F5F5F5
310
F5F5F5F5F5F5F5F5F5F5F5F5F5F5F5F5F5F5F5F5F5F5F5F5F5F5F5F5F5F5F5F5F5F5F5F5F5F5F5F5F5F5F5F5F5F5F5F5F5F5F5F5F5F5F5F5F5F5F5F5F5F5F5F5F5F5F5F5F5F5F5F5F5F5F5F5F5F5F5F5F5F5F5F5F5F5F5F5F5F5E2F5F5F5F5F5F5F5BEF5F5F5F5F5F5F5F5F5F5F5F5F5F5F5F5E2F5F5F5E2E2E2F5F5F5E2F5
310
F5F5F5F5F5F5F5F5F5F5F5F5F5F5F5BEF5F5F5F5F5F5F5E2F5F5F5F5F5F5F5F5F5F5F5F5F5F5F5F5F5F5F5F5F5F5F5F5F5F5F5F5F5F5F5F5F5F5F5F5F5F5F5F5F5F5F5F5F5F5F5F5F5F5F5F5F5F5F5F5F5F5F5F5F5F5F5F5F5F5F5F5F5F5F5F5F5F5F5F5F5F5F5F5F5F5F5F5F5F5F5F5F5F5F5F5F5F5F5F5F5F5F5F5F5F5F5
310
F5F5F5F5F5F5F5F5F5F5F5F5F5F5F5F5E2F5F5F5F5F5F5F5BEF5F5F5F5F5F5F5F5F5F5F5F5F5F5F5F5E2F5F5F5E2E2E2F5F5F5E2F5F5F5F5F5F5F5F5F5F5F5F5F5F5F5F5BEF5F5F5F5F5F5F5E2E2E2E2E2E2E2E2E2E2E2E2E2E2E2E2E2E2E2E2E2E2E2E2E2E2E2E2E2E2E2E2E2E2E2E2E2E2E2E2E2E2E2E2E2E2E2E2E2E2E2
310
E2E2E2E2E2E2E2E2E2E2E2E2E2E2E2E2E2E2E2E2E2E2E2E2E2E2E2E2E2E2E2E2E2E2E2E2E2E2E2E2E2E2E2E2E2E2E2E2E2E2E2E2E2E2E2E2E2E2E2E2E2E2E2E2E2E2E2E2E2E2F5F5F5F5F5F5F5BEF5F5F5F5F5F5F5F5F5F5F5F5F5F5F5F5E2F5F5F5E2E2E2F5F5F5E2F5F5F5F5F5F5F5F5F5F5F5F5F5F5F5F5BEF5F5F5F5F5
310
F5F5F5F5F5F5F5F5F5F5F5F5F5F5F5F5F5F5F5F5F5F5F5F5F5F5F5F5F5F5F5F5F5F5F5F5F5F5F5F5F5F5F5F5F5F5F5F5F5F5F5F5F5F5F5F5F5F5F5F5F5F5F5F5F5F5F5F5F5F5F5F5F5F5F5F5F5F5F5F5F5F5F5F5F5F5F5F5F5F5F5F5F5F5F5F5F5F5F5F5F5F5F5F5F5F5F5F5F5F5F5F5F5F5F5F5F5F5F5F5F5F5F5F5F5F5F5
310
F5F5F5BEF5F5F5F5F5F5F5F5F5F5F5F5F5F5F5F5E2F5F5F5E2E2E2F5F5F5F5F5F5F5F5F5F5F5F5F5F5F5F5F5F5F5F5BEF5F5F5F5F5F5F5F5F5F5F5F5F5F5F5F5F5F5F5F5F5F5F5F5F5F5F5F5F5F5F5F5F5F5F5F5F5F5F5F5F5F5F5F5F5F5F5F5F5F5F5F5F5F5F5F5F5F5F5F5F5F5F5F5F5F5F5F5F5F5F5F5F5F5F5F5F5F5F5
310
F5F5F5F5F5F5F5F5F5F5F5F5F5F5F5F5F5F5F5F5F5F5F5F5F5F5F5F5F5F5F5F5F5F5F5F5F5F5F5F5F5F5F5F5F5F5F5F5F5F5F5F5F5F5F5F5BEF5F5F5F5F5F5F5F5F5F5F5F5F5F5F5F5F5F5F5F5E2E2E2F5F5F5F5F5F5F5F5F5F5F5F5F5F5F5F5F5F5F5F5BEF5F5F5F5F5F5F5F5F5F5F5F5F5F5F5F5F5F5F5F5F5F5F5F5F5F5
310
F5F5F5F5F5F5F5F5F5F5F5F5F5F5F5F5F5F5F5F5F5F5F5F5F5F5F5F5F5F5F5F5F5F5F5F5F5F5F5F5F5F5F5F5F5F5F5F5F5F5F5F5F5F5F5F5F5F5F5F5F5F5F5F5F5F5F5F5F5F5F5F5F5F5F5F5F5F5F5F5F5F5F5F5F5F5F5F5F5F5F5F5F5F5F5F5F5F5F5F5F5F5F5F5F5F5F5F5F5BEF5F5F5F5F5F5F5F5F5F5F5F5F5F5F5F5F5
310
F5F5F5E2E2E2F5F5F5F5F5F5F5F5F5F5F5F5F5F5F5F5F5F5F5F5BEF5F5F5F5F5F5F5F5F5F5F5F5F5F5F5F5F5F5F5F5F5F5F5F5F5F5F5F5F5F5F5F5F5F5F5F5F5F5F5F5F5F5F5F5F5F5F5F5F5F5F5F5F5F5F5F5F5F5F5F5F5F5F5F5F5F5F5F5F5F5F5F5F5F5F5F5F5F5F5F5F5F5F5F5F5F5F5F5F5F5F5F5F5F5F5F5F5F5F5F5
310
F5F5F5F5F5F5F5F5F5F5F5F5F5F5F5F5F5F5F5F5F5F5F5F5F5F5F5F5F5F5F5F5F5F5F5BEF5F5F5F5F5F5F5F5F5F5F5F5F5F5F5F5F5F5F5F5E2E2E2F5F5F5F5F5F5F5F5F5F5F5F5F5F5F5F5F5F5F5F5BEF5F5F5F5F5F5F5F5F5F5F5F5F5F5F5F5F5F5F5F5F5F5F5F5F5F5F5F5F5F5F5F5F5F5F5F5F5F5F5F5F5F5F5F5F5F5F5
310
F5F5F5F5F5F5F5F5F5F5F5F5F5F5F5F5F5F5F5F5F5F5F5F5F5F5F5F5F5F5F5F5F5F5F5F5F5F5F5F5F5F5F5F5F5F5F5F5F5F5F5F5F5F5F5F5F5F5F5F5F5F5F5F5F5F5F5F5F5F5F5F5F5F5F5F5F5F5F5F5F5F5F5F5F5F5F5F5BEF5F5F5F5F5F5F5F5F5F5F5F5F5F5F5F5F5F5F5F5E2E2E2F5F5F5F5F5F5F5F5F5F5F5F5F5F5F5
310
F5F5F5F5F5BEBEBEBEBEBEBEBEBEBEBEBEBEBEBEBEBEBEBEBEBEBEBEBEBEBEBEBEBEBEBEBEBEBEBEBEBEBEBEBEBEBEBEBEBEBEBEBEBEBEBEBEBEBEBEBEBEBEBEBEBEBEBEBEBEBEBEBEBEBEBEBEBEBEBEBEBEBEBEBEBEBEBEBEBEBEBEBEBEBEBEBEBEBEBEBEBEBEBEBEBEBEBEBEBEBEBEBEBEBEBEBEBEBEBEBEBEBEBEBEBEBE
310
BEBEBEBEBEBEBEBEBEBEBEBEBEBEBEF5F5F5F5F5F5F5F5F5F5F5F5F5F5F5F5F5F5F5F5E2E2E2F5F5F5F5F5F5F5F5F5F5F5F5F5F5F5F5F5F5F5F5F5F5F5F5F5F5F5F5F5F5F5F5F5F5F5F5F5F5F5F5F5F5F5F5F5F5F5F5F5F5F5F5F5F5F5F5F5F5F5F5F5F5F5F5F5F5F5F5F5F5F5F5F5F5F5F5F5F5F5F5F5F5F5F5F5F5F5F5F5
310
F5F5F5F5F5F5F5F5F5F5F5F5F5F5F5F5F5F5F5F5F5F5F5F5F5F5F5F5F5F5F5F5F5F5F5F5F5F5F5F5F5F5F5F5F5F5F5F5F5F5F5F5F5F5F5F5F5F5F5F5F5F5F5F5F5F5F5F5F5F5F5F5F5F5F5F5F5F5F5F5F5F5F5F5F5F5F5F5E2E2E2F5F5F5F5F5F5F5F5F5F5F5F5F5F5F5F5F5F5F5F5F5F5F5F5F5F5F5F5F5F5F5F5F5F5F5F5
310
F5F5F5F5F5F5F5F5F5F5F5F5F5F5F5F5F5F5F5F5F5F5F5F5F5F5F5F5F5F5F5F5F5F5F5F5F5F5F5F5F5F5F5F5F5F5F5F5F5F5F5F5F5F5F5F5F5F5F5F5F5F5F5F5F5F5F5F5F5F5F5F5F5F5F5F5F5F5F5F5F5F5F5F5F5F5F5F5F5F5F5F5F5F5F5F5F5F5F5F5F5F5F5F5F5F5F5F5F5F5F5F5F5F5F5F5F5F5F5F5F5F5F5F5F5F5F5
310
F5F5F5F5F5F5F5F5F5F5F5F5F5F5E2E2E2F5F5F5F5F5F5F5F5F5F5F5F5F5F5F5F5F5F5F5F5F5F5F5F5F5F5F5F5F5F5F5F5F5F5F5F5F5F5F5F5F5F5F5F5F5F5F5F5F5F5F5F5F5F5F5F5F5F5F5F5F5F5F5F5F5F5F5F5F5F5F5F5F5F5F5F5F5F5F5F5F5F5F5F5F5F5F5F5F5F5F5F5F5F5F5F5F5F5F5F5F5F5F5F5F5F5F5F5F5F5
310
F5F5F5F5F5F5F5F5F5F5F5F5F5F5F5F5F5F5F5F5F5F5F5F5F5F5F5F5F5F5F5F5F5F5F5F5F5F5F5F5F5F5F5F5F5F5F5F5F5F5F5F5F5F5F5F5F5F5F5F5F5F5F5F5F5F5F5E2E2E2F5F5F5F5F5F5F5F5F5F5F5F5F5F5F5F5F5F5F5F5F5F5F5F5F5F5F5F5F5F5F5F5F5F5F5F5F5F5F5F5F5F5F5F5F5F5F5F5F5F5F5F5F5F5F5F5F5
310
F5F5F5F5F5F5F5F5F5F5F5F5F5F5F5F5F5F5F5F5F5F5F5F5F5F5F5F5F5F5F5F5F5F5F5F5F5F5F5F5F5F5F5F5F5F5F5F5F5F5F5F5F5F5F5F5F5F5F5F5F5F5F5F5F5F5F5F5F5F5F5F5F5F5F5F5F5F5F5F5F5F5F5F5F5F5F5F5F5F5F5F5F5F5F5F5F5F5F5F5F5F5F5F5F5F5F5F5F5F5F5F5F5F5F5F5F5F5F5F5E2E2E2F5F5F5E2
310
F5F5F5F5F5F5F5F5F5F5F5F5F5F5F5F5F5F5F5F5F5F5F5F5F5F5F5F5F5F5F5F5F5F5F5F5F5F5F5F5F5F5F5F5F5F5F5F5F5F5F5F5F5F5F5F5F5F5F5F5F5F5F5F5F5F5F5F5F5F5F5F5F5F5F5F5F5F5F5F5F5F5F5F5F5F5F5F5F5F5F5F5F5F5F5F5F5F5F5F5F5F5F5F5F5F5F5F5F5F5F5F5F5F5F5F5F5F5F5F5F5F5F5F5F5F5F5
310
F5F5F5F5F5F5F5F5F5F5F5F5F5F5F5F5F5F5F5F5F5F5F5F5F5F5F5F5F5F5F5F5F5F5F5F5F5F5F5F5F5F5E2F5F5F5E2E2E2F5F5F5E2F5F5F5F5F5F5F5F5F5F5F5F5F5F5F5F5F5F5F5F5F5F5F5F5F5F5F5F5F5F5F5F5F5F5F5F5F5F5F5F5F5F5F5F5F5F5F5F5F5F5F5F5F5F5F5F5F5F5F5F5F5F5F5F5F5F5F5F5F5F5F5F5F5F5
310
F5F5F5F5F5F5F5F5F5F5F5F5F5F5F5F5F5F5F5F5F5F5F5F5F5F5F5F5F5F5F5F5F5F5F5F5F5F5F5F5F5F5F5F5F5F5F5F5F5F5F5F5F5F5F5F5F5F5F5F5F5F5F5F5F5F5F5F5F5F5F5F5F5F5F5F5F5F5F5F5F5F5F5F5F5F5F5F5F5F5F5F5F5F5F5E2F5F5F5E2E2E2F5F5F5E2F5F5F5F5F5F5F5F5F5F5F5F5F5F5F5F5F5F5F5F5F5
310
F5F5F5F5F5F5F5F5F5F5F5F5F5F5F5F5F5F5F5F5F5F5F5F5F5F5F5F5F5F5F5F5F5F5F5F5F5F5F5F5F5F5F5F5F5F5F5F5F5F5F5F5F5F5F5F5F5F5F5F5F5F5F5F5F5F5F5F5F5F5F5F5F5F5F5F5F5F5F5F5F5F5F5F5F5F5F5F5F5F5F5F5F5F5F5F5F5F5F5F5F5F5F5F5F5F5F5F5F5F5F5F5F5F5F5F5F5F5F5F5F5F5F5F5F5F5F5
310
F5F5F5F5F5F5F5F5F5F5F5F5F5F5F5F5F5F5F5F5F5E2F5F5F5E2E2E2F5F5F5E2F5F5F5F5F5F5F5F5F5F5F5F5F5F5F5F5F5F5F5F5F5F5F5F5F5F5F5F5F5F5F5F5F5F5F5F5F5F5F5F5F5F5F5F5F5F5F5F5F5F5F5F5F5F5F5F5F5F5F5F5F5F5F5F5F5F5F5F5F5F5F5F5F5F5F5F5F5F5F5F5F5F5F5F5F5F5F5F5F5F5F5F5F5F5F5
310
F5F5F5F5F5F5F5F5F5F5F5F5F5F5F5F5F5F5F5F5F5F5F5F5F5F5F5F5F5F5F5F5F5F5F5F5F5F5F5F5F5F5F5F5F5F5F5F5F5F5F5F5F5F5F5F5F5F5F5F5F5F5F5F5F5F5F5F5F5F5F5F5F5F5E2F5F5F5E2E2E2F5F5F5E2F5F5F5F5F5F5F5F5F5F5F5F5F5F5F5F5F5F5F5F5F5F5F5F5F5F5F5F5F5F5F5F5F5F5F5F5F5F5F5F5F5F5
310
F5F5F5F5F5F5F5F5F5F5F5F5F5F5F5F5F5F5F5F5F5F5F5F5F5F5F5F5F5F5F5F5F5F5F5F5F5F5F5F5F5F5F5F5F5F5F5F5F5F5F5F5F5F5F5F5F5F5F5F5F5F5F5F5F5F5F5F5F5F5F5F5F5F5F5F5F5F5F5F5F5F5F5F5F5F5F5F5F5F5F5F5F5F5F5F5F5F5F5F5F5F5F5F5F5F5F5F5F5F5F5F5F5F5F5F5F5F5F5F5F5F5F5F5F5F5F5
310
E2F5F5F5E2E2E2F5F5F5E2F5F5F5F5F5F5F5F5F5F5F5F5F5F5F5F5F5F5F5F5F5F5F5F5F5F5F5F5F5F5F5F5F5F5F5F5F5F5F5F5F5F5F5F5F5F5F5F5F5F5F5F5F5F5F5F5F5F5F5F5F5F5F5F5F5F5F5F5F5F5F5F5F5F5F5F5F5F5F5F5F5F5F5F5F5F5F5F5F5F5F5F5F5F5F5F5F5F5F5F5F5F5F5F5F5F5F5F5F5F5F5F5F5F5F5F5
310
F5F5F5F5F5F5F5F5F5F5F5F5F5F5F5F5F5F5F5F5F5F5F5F5F5F5F5F5F5F5F5F5F5F5F5F5F5F5F5F5F5F5F5F5F5F5F5F5F5F5F5F5F5E2F5F5F5E2E2E2F5F5F5E2F5F5F5F5F5F5F5F5F5F5F5F5F5F5F5F5F5F5F5F5F5F5F5F5F5F5F5F5F5F5F5F5F5F5F5F5F5F5F5F5F5F5F5F5F5F5F5F5F5F5F5F5F5F5F5F5F5F5F5F5F5F5F5
310
F5F5F5F5F5F5F5F5F5F5F5F5F5F5F5F5F5F5F5F5F5F5F5F5F5F5F5F5F5F5F5F5F5F5F5F5F5F5F5F5F5F5F5F5F5F5F5F5F5F5F5F5F5F5F5F5F5F5F5F5F5F5F5F5F5F5F5F5F5F5F5F5F5F5F5F5F5F5F5F5F5F5F5F5F5F5F5F5F5F5F5F5F5F5F5F5F5F5F5F5F5F5F5F5F5F5E2F5F5F5E2E2E2F5F5F5E2F5F5F5F5F5F5F5F5F5F5
310
F5F5F5F5F5F5F5F5F5F5F5F5F5F5F5F5F5F5F5F5F5F5F5F5F5F5F5F5F5F5F5F5F5F5F5F5F5F5F5F5F5F5F5F5F5F5F5F5F5F5F5F5F5F5F5F5F5F5F5F5F5F5F5F5F5F5F5F5F5F5F5F5F5F5F5F5F5F5F5F5F5F5F5F5F5F5F5F5F5F5F5F5F5F5F5F5F5F5F5F5F5F5F5F5F5F5F5F5F5F5F5F5F5F5F5F5F5F5F5F5F5F5F5F5F5F5F5
310
F5F5F5F5F5F5F5F5F5F5F5F5F5F5F5F5F5F5F5F5F5F5F5F5F5F5F5F5F5F5F5F5E2F5F5F5E2E2E2F5F5F5E2E2E2E2E2E2E2E2F5F5F5F5F5F5F5F5F5E2E2E2E2E2E2E2E2E2E2E2E2E2E2E2E2F5F5F5F5F5F5F5F5E2E2E2E2E2E2E2E2E2E2E2E2E2E2E2E2F5F5F5F5F5F5F5F5F5E2E2E2E2E2E2E2E2E2E2E2E2E2E2E2F5F5F5F5
310
F5F5F5F5F5E2E2E2E2E2E2E2E2E2E2E2E2E2E2E2F5F5F5F5F5F5F5F5F5E2E2E2E2E2E2E2E2E2E2E2E2E2E2E2E2F5F5F5F5F5F5F5F5E2E2E2E2E2E2E2E2E2E2E2E2E2E2E2E2F5F5F5F5F5F5F5F5F5E2E2E2E2E2E2E2E2F5F5F5E2E2E2F5F5F5F5F5F5F5F5F5F5F5F5F5F5F5F5F5F5F5F5F5F5F5F5F5F5F5F5F5F5F5F5F5F5F5
310
F5F5F5F5F5F5F5F5F5F5F5F5F5F5F5F5F5F5F5F5F5F5F5F5F5F5F5F5F5F5F5F5F5F5F5F5F5F5F5F5F5F5F5F5F5F5F5F5F5F5F5F5F5F5F5F5F5F5F5F5F5F5F5F5F5F5F5F5F5F5F5F5F5F5F5F5F5F5F5F5F5F5F5F5F5F5F5F5F5F5F5F5F5F5F5F5F5F5F5F5F5F5F5F5F5F5F5F5F5F5F5F5F5F5F5F5F5F5F5F5F5F5F5F5F5F5F5
310
F5F5F5F5F5F5F5F5F5F5F5F5F5F5F5E2E2E2F5F5F5F5F5F5F5F5F5F5F5F5F5F5F5F5F5F5F5F5F5F5F5F5F5F5F5F5F5F5F5F5F5F5F5F5F5F5F5F5F5F5F5F5F5F5F5F5F5F5F5F5F5F5F5F5F5F5F5F5F5F5F5F5F5F5F5F5F5F5F5F5F5F5F5F5F5F5F5F5F5F5F5F5F5F5F5F5F5F5F5F5F5F5F5F5F5F5F5F5F5F5F5F5F5F5F5F5F5
310
F5F5F5F5F5F5F5F5F5F5F5F5F5F5F5F5F5F5F5F5F5F5F5F5F5F5F5F5F5F5F5F5F5F5F5F5F5F5F5F5F5F5F5F5F5F5F5F5F5F5F5F5F5F5F5F5F5F5F5F5F5F5F5F5F5F5F5F5E2E2E2F5F5F5F5F5F5F5F5F5F5F5F5F5F5F5F5F5F5F5F5F5F5F5F5F5F5F5F5F5F5F5F5F5F5F5F5F5F5F5F5F5F5F5F5F5F5F5F5F5F5F5F5F5F5F5F5
310
F5F5F5F5F5F5F5F5F5F5F5F5F5F5F5F5F5F5F5F5F5F5F5F5F5F5F5F5F5F5F5F5F5F5F5F5F5F5F5F5F5F5F5F5F5F5F5F5F5F5F5F5F5F5F5F5F5F5F5F5F5F5F5F5F5F5F5F5F5F5F5F5F5F5F5F5F5F5F5F5F5F5F5F5F5F5F5F5F5F5F5F5F5F5F5F5F5F5F5F5F5F5F5F5F5F5F5F5F5F5F5F5F5F5F5F5F5F5F5F5F5E2EFE2F5F5F5
310
F5F5F5F5F5F5F5F5F5F5F5F5F5F5F5F5F5F5F5F5F5F5F5F5F5F5F5F5F5F5F5F5F5F5F5F5F5F5F5F5F5F5F5F5F5F5F5F5F5F5F5F5F5F5F5F5F5F5F5F5F5F5F5F5F5F5F5F5F5F5F5F5F5F5F5F5F5F5F5F5F5F5F5F5F5F5F5F5F5F5F5F5F5F5F5F5F5F5F5F5F5F5F5F5F5F5F5F5F5F5F5F5F5F5F5F5F5F5F5F5F5F5F5F5F5F5F5
310
F5F5F5F5F5F5F5F5F5F5F5F5F5F5F5F5F5F5F5F5F5F5F5F5F5F5F5F5F5F5F5F5F5F5F5F5F5F5F5F5F5F5F5F5F5F5F5E2EF
  0
XRECORD
  5
13A2
102
{ACAD_REACTORS
330
13A1
102
}
330
13A1
100
AcDbXrecord
280
     1
102
SHADEPLOT
 70
     0
102
SHADEPLOTRESLEVEL
 70
     2
102
SHADEPLOTCUSTOMDPI
 70
   300
  0
XRECORD
  5
139F
102
{ACAD_REACTORS
330
139E
102
}
330
139E
100
AcDbXrecord
280
     1
102
SHADEPLOT
 70
     0
102
SHADEPLOTRESLEVEL
 70
     2
102
SHADEPLOTCUSTOMDPI
 70
   300
  0
XRECORD
  5
13AE
102
{ACAD_REACTORS
330
13AD
102
}
330
13AD
100
AcDbXrecord
280
     1
102
MATERIAL
148
0.0
149
0.0
149
0.0
 93
        0
 94
       63
282
     0
 72
     1
 77
     1
171
     1
175
     1
179
     1
273
     0
  0
XRECORD
  5
13AC
102
{ACAD_REACTORS
330
13AB
102
}
330
13AB
100
AcDbXrecord
280
     1
102
MATERIAL
148
0.0
149
0.0
149
0.0
 93
        0
 94
       63
282
     0
 72
     1
 77
     1
171
     1
175
     1
179
     1
273
     0
  0
XRECORD
  5
13AA
102
{ACAD_REACTORS
330
13A9
102
}
330
13A9
100
AcDbXrecord
280
     1
102
MATERIAL
148
0.0
149
0.0
149
0.0
 93
        0
 94
       63
282
     0
 72
     1
 77
     1
171
     1
175
     1
179
     1
273
     0
  0
XRECORD
  5
13A4
102
{ACAD_REACTORS
330
13A3
102
}
330
13A3
100
AcDbXrecord
280
     1
102
ACAD_ROUNDTRIP_PRE2007_TABLESTYLE
 90
        4
 91
        0
  1

 92
        4
 93
        0
  2

 94
        4
 95
        0
  3

  0
ENDSEC
  0
EOF
