  0
SECTION
  2
HEADER
  9
$ACADVER
  1
AC1018
  9
$ACADMAINTVER
 70
   104
  9
$DWGCODEPAGE
  3
ANSI_1252
  9
$LASTSAVEDBY
  1
jgayle
  9
$INSBASE
 10
0.0
 20
0.0
 30
0.0
  9
$EXTMIN
 10
4.200503388644505
 20
1.550541224461294
 30
-0.0000000000000016
  9
$EXTMAX
 10
17.31477147598665
 20
19.76296865013013
 30
0.0000000000000016
  9
$LIMMIN
 10
0.0
 20
0.0
  9
$LIMMAX
 10
34.0
 20
22.0
  9
$ORTHOMODE
 70
     1
  9
$REGENMODE
 70
     1
  9
$FILLMODE
 70
     1
  9
$QTEXTMODE
 70
     0
  9
$MIRRTEXT
 70
     1
  9
$LTSCALE
 40
1.0
  9
$ATTMODE
 70
     1
  9
$TEXTSIZE
 40
0.2
  9
$TRACEWID
 40
0.05
  9
$TEXTSTYLE
  7
Standard
  9
$CLAYER
  8
0
  9
$CELTYPE
  6
ByLayer
  9
$CECOLOR
 62
   256
  9
$CELTSCALE
 40
1.0
  9
$DISPSILH
 70
     0
  9
$DIMSCALE
 40
1.0
  9
$DIMASZ
 40
0.25
  9
$DIMEXO
 40
0.05
  9
$DIMDLI
 40
0.38
  9
$DIMRND
 40
0.0
  9
$DIMDLE
 40
0.0
  9
$DIMEXE
 40
0.125
  9
$DIMTP
 40
0.0
  9
$DIMTM
 40
0.0
  9
$DIMTXT
 40
0.25
  9
$DIMCEN
 40
0.09
  9
$DIMTSZ
 40
0.0
  9
$DIMTOL
 70
     0
  9
$DIMLIM
 70
     0
  9
$DIMTIH
 70
     1
  9
$DIMTOH
 70
     1
  9
$DIMSE1
 70
     0
  9
$DIMSE2
 70
     0
  9
$DIMTAD
 70
     1
  9
$DIMZIN
 70
     0
  9
$DIMBLK
  1

  9
$DIMASO
 70
     1
  9
$DIMSHO
 70
     1
  9
$DIMPOST
  1

  9
$DIMAPOST
  1

  9
$DIMALT
 70
     1
  9
$DIMALTD
 70
     0
  9
$DIMALTF
 40
25.4
  9
$DIMLFAC
 40
1.0
  9
$DIMTOFL
 70
     0
  9
$DIMTVP
 40
0.0
  9
$DIMTIX
 70
     0
  9
$DIMSOXD
 70
     0
  9
$DIMSAH
 70
     0
  9
$DIMBLK1
  1

  9
$DIMBLK2
  1

  9
$DIMSTYLE
  2
Standard
  9
$DIMCLRD
 70
     0
  9
$DIMCLRE
 70
     0
  9
$DIMCLRT
 70
     0
  9
$DIMTFAC
 40
1.0
  9
$DIMGAP
 40
0.06
  9
$DIMJUST
 70
     0
  9
$DIMSD1
 70
     0
  9
$DIMSD2
 70
     0
  9
$DIMTOLJ
 70
     1
  9
$DIMTZIN
 70
     0
  9
$DIMALTZ
 70
     0
  9
$DIMALTTZ
 70
     0
  9
$DIMUPT
 70
     0
  9
$DIMDEC
 70
     3
  9
$DIMTDEC
 70
     3
  9
$DIMALTU
 70
     2
  9
$DIMALTTD
 70
     0
  9
$DIMTXSTY
  7
Standard
  9
$DIMAUNIT
 70
     0
  9
$DIMADEC
 70
     0
  9
$DIMALTRND
 40
0.0
  9
$DIMAZIN
 70
     0
  9
$DIMDSEP
 70
    46
  9
$DIMATFIT
 70
     3
  9
$DIMFRAC
 70
     0
  9
$DIMLDRBLK
  1

  9
$DIMLUNIT
 70
     4
  9
$DIMLWD
 70
    -2
  9
$DIMLWE
 70
    -2
  9
$DIMTMOVE
 70
     0
  9
$LUNITS
 70
     2
  9
$LUPREC
 70
     3
  9
$SKETCHINC
 40
0.1
  9
$FILLETRAD
 40
0.5
  9
$AUNITS
 70
     0
  9
$AUPREC
 70
     0
  9
$MENU
  1
.
  9
$ELEVATION
 40
0.0
  9
$PELEVATION
 40
0.0
  9
$THICKNESS
 40
0.0
  9
$LIMCHECK
 70
     0
  9
$CHAMFERA
 40
0.5
  9
$CHAMFERB
 40
0.5
  9
$CHAMFERC
 40
1.0
  9
$CHAMFERD
 40
0.0
  9
$SKPOLY
 70
     0
  9
$TDCREATE
 40
2456223.649083542
  9
$TDUCREATE
 40
2456223.815750208
  9
$TDUPDATE
 40
2456223.659425880
  9
$TDUUPDATE
 40
2456223.826092546
  9
$TDINDWG
 40
0.0092869676
  9
$TDUSRTIMER
 40
0.0092869676
  9
$USRTIMER
 70
     1
  9
$ANGBASE
 50
0.0
  9
$ANGDIR
 70
     0
  9
$PDMODE
 70
     0
  9
$PDSIZE
 40
-1.0
  9
$PLINEWID
 40
0.0
  9
$SPLFRAME
 70
     0
  9
$SPLINETYPE
 70
     6
  9
$SPLINESEGS
 70
     8
  9
$HANDSEED
  5
473
  9
$SURFTAB1
 70
     6
  9
$SURFTAB2
 70
     6
  9
$SURFTYPE
 70
     6
  9
$SURFU
 70
     6
  9
$SURFV
 70
     6
  9
$UCSBASE
  2

  9
$UCSNAME
  2

  9
$UCSORG
 10
0.0
 20
0.0
 30
0.0
  9
$UCSXDIR
 10
1.0
 20
0.0
 30
0.0
  9
$UCSYDIR
 10
0.0
 20
1.0
 30
0.0
  9
$UCSORTHOREF
  2

  9
$UCSORTHOVIEW
 70
     0
  9
$UCSORGTOP
 10
0.0
 20
0.0
 30
0.0
  9
$UCSORGBOTTOM
 10
0.0
 20
0.0
 30
0.0
  9
$UCSORGLEFT
 10
0.0
 20
0.0
 30
0.0
  9
$UCSORGRIGHT
 10
0.0
 20
0.0
 30
0.0
  9
$UCSORGFRONT
 10
0.0
 20
0.0
 30
0.0
  9
$UCSORGBACK
 10
0.0
 20
0.0
 30
0.0
  9
$PUCSBASE
  2

  9
$PUCSNAME
  2

  9
$PUCSORG
 10
0.0
 20
0.0
 30
0.0
  9
$PUCSXDIR
 10
1.0
 20
0.0
 30
0.0
  9
$PUCSYDIR
 10
0.0
 20
1.0
 30
0.0
  9
$PUCSORTHOREF
  2

  9
$PUCSORTHOVIEW
 70
     0
  9
$PUCSORGTOP
 10
0.0
 20
0.0
 30
0.0
  9
$PUCSORGBOTTOM
 10
0.0
 20
0.0
 30
0.0
  9
$PUCSORGLEFT
 10
0.0
 20
0.0
 30
0.0
  9
$PUCSORGRIGHT
 10
0.0
 20
0.0
 30
0.0
  9
$PUCSORGFRONT
 10
0.0
 20
0.0
 30
0.0
  9
$PUCSORGBACK
 10
0.0
 20
0.0
 30
0.0
  9
$USERI1
 70
     0
  9
$USERI2
 70
     0
  9
$USERI3
 70
     0
  9
$USERI4
 70
     0
  9
$USERI5
 70
     0
  9
$USERR1
 40
0.0
  9
$USERR2
 40
0.0
  9
$USERR3
 40
0.0
  9
$USERR4
 40
0.0
  9
$USERR5
 40
0.0
  9
$WORLDVIEW
 70
     1
  9
$SHADEDGE
 70
     3
  9
$SHADEDIF
 70
    70
  9
$TILEMODE
 70
     1
  9
$MAXACTVP
 70
    64
  9
$PINSBASE
 10
0.0
 20
0.0
 30
0.0
  9
$PLIMCHECK
 70
     0
  9
$PEXTMIN
 10
1.000000000000000E+20
 20
1.000000000000000E+20
 30
1.000000000000000E+20
  9
$PEXTMAX
 10
-1.000000000000000E+20
 20
-1.000000000000000E+20
 30
-1.000000000000000E+20
  9
$PLIMMIN
 10
0.0
 20
0.0
  9
$PLIMMAX
 10
12.0
 20
9.0
  9
$UNITMODE
 70
     0
  9
$VISRETAIN
 70
     1
  9
$PLINEGEN
 70
     0
  9
$PSLTSCALE
 70
     1
  9
$TREEDEPTH
 70
  3020
  9
$CMLSTYLE
  2
Standard
  9
$CMLJUST
 70
     0
  9
$CMLSCALE
 40
1.0
  9
$PROXYGRAPHICS
 70
     1
  9
$MEASUREMENT
 70
     0
  9
$CELWEIGHT
370
    -1
  9
$ENDCAPS
280
     0
  9
$JOINSTYLE
280
     0
  9
$LWDISPLAY
290
     1
  9
$INSUNITS
 70
     1
  9
$HYPERLINKBASE
  1

  9
$STYLESHEET
  1

  9
$XEDIT
290
     1
  9
$CEPSNTYPE
380
     0
  9
$PSTYLEMODE
290
     1
  9
$FINGERPRINTGUID
  2
{03A1CA83-2C89-4481-BBD0-0BEC0CA687DC}
  9
$VERSIONGUID
  2
{DEC89A8C-ECCD-41D5-BA8E-9023C914CBAC}
  9
$EXTNAMES
290
     1
  9
$PSVPSCALE
 40
0.0
  9
$OLESTARTUP
290
     0
  9
$SORTENTS
280
   127
  9
$INDEXCTL
280
     0
  9
$HIDETEXT
280
     0
  9
$XCLIPFRAME
290
     0
  9
$HALOGAP
280
     0
  9
$OBSCOLOR
 70
   257
  9
$OBSLTYPE
280
     0
  9
$INTERSECTIONDISPLAY
280
     0
  9
$INTERSECTIONCOLOR
 70
   257
  9
$DIMASSOC
280
     1
  9
$PROJECTNAME
  1

  0
ENDSEC
  0
SECTION
  2
CLASSES
  0
CLASS
  1
ACDBDICTIONARYWDFLT
  2
AcDbDictionaryWithDefault
  3
ObjectDBX Classes
 90
        0
 91
        1
280
     0
281
     0
  0
CLASS
  1
VISUALSTYLE
  2
AcDbVisualStyle
  3
ObjectDBX Classes
 90
     4095
 91
       24
280
     0
281
     0
  0
CLASS
  1
MATERIAL
  2
AcDbMaterial
  3
ObjectDBX Classes
 90
     1153
 91
        3
280
     0
281
     0
  0
CLASS
  1
TABLESTYLE
  2
AcDbTableStyle
  3
ObjectDBX Classes
 90
     4095
 91
        1
280
     0
281
     0
  0
CLASS
  1
SCALE
  2
AcDbScale
  3
ObjectDBX Classes
 90
     1153
 91
       17
280
     0
281
     0
  0
CLASS
  1
MLEADERSTYLE
  2
AcDbMLeaderStyle
  3
ACDB_MLEADERSTYLE_CLASS
 90
     4095
 91
        1
280
     0
281
     0
  0
CLASS
  1
SORTENTSTABLE
  2
AcDbSortentsTable
  3
ObjectDBX Classes
 90
        0
 91
        1
280
     0
281
     0
  0
CLASS
  1
DICTIONARYVAR
  2
AcDbDictionaryVar
  3
ObjectDBX Classes
 90
        0
 91
        5
280
     0
281
     0
  0
CLASS
  1
CELLSTYLEMAP
  2
AcDbCellStyleMap
  3
ObjectDBX Classes
 90
     1152
 91
        2
280
     0
281
     0
  0
ENDSEC
  0
SECTION
  2
TABLES
  0
TABLE
  2
VPORT
  5
8
102
{ACAD_XDICTIONARY
360
3FA
102
}
330
0
100
AcDbSymbolTable
 70
     1
  0
VPORT
  5
29
330
8
100
AcDbSymbolTableRecord
100
AcDbViewportTableRecord
  2
*Active
 70
     0
 10
0.0
 20
0.0
 11
1.0
 21
1.0
 12
10.75755317248118
 22
10.65675359086222
 13
0.0
 23
0.0
 14
0.5
 24
0.5
 15
0.5
 25
0.5
 16
0.0
 26
0.0
 36
1.0
 17
0.0
 27
0.0
 37
0.0
 40
18.38116360732955
 41
2.320493066255778
 42
50.0
 43
0.0
 44
0.0
 50
0.0
 51
0.0
 71
     0
 72
  2000
 73
     1
 74
     3
 75
     0
 76
     0
 77
     0
 78
     0
281
     0
 65
     1
110
0.0
120
0.0
130
0.0
111
1.0
121
0.0
131
0.0
112
0.0
122
1.0
132
0.0
 79
     0
146
0.0
1001
ACAD_NAV_VCDISPLAY
1070
     3
  0
ENDTAB
  0
TABLE
  2
LTYPE
  5
5
330
0
100
AcDbSymbolTable
 70
     6
  0
LTYPE
  5
14
330
5
100
AcDbSymbolTableRecord
100
AcDbLinetypeTableRecord
  2
ByBlock
 70
     0
  3

 72
    65
 73
     0
 40
0.0
  0
LTYPE
  5
15
330
5
100
AcDbSymbolTableRecord
100
AcDbLinetypeTableRecord
  2
ByLayer
 70
     0
  3

 72
    65
 73
     0
 40
0.0
  0
LTYPE
  5
16
330
5
100
AcDbSymbolTableRecord
100
AcDbLinetypeTableRecord
  2
Continuous
 70
     0
  3
Solid line
 72
    65
 73
     0
 40
0.0
  0
LTYPE
  5
3F
330
5
100
AcDbSymbolTableRecord
100
AcDbLinetypeTableRecord
  2
HIDDEN
 70
     0
  3
Hidden __ __ __ __ __ __ __ __ __ __ __ __ __ __
 72
    65
 73
     2
 40
0.075
 49
0.05
 74
     0
 49
-0.025
 74
     0
  0
LTYPE
  5
40
330
5
100
AcDbSymbolTableRecord
100
AcDbLinetypeTableRecord
  2
PHANTOM
 70
     0
  3
Phantom ______  __  __  ______  __  __  ______
 72
    65
 73
     6
 40
0.5
 49
0.25
 74
     0
 49
-0.05
 74
     0
 49
0.05
 74
     0
 49
-0.05
 74
     0
 49
0.05
 74
     0
 49
-0.05
 74
     0
  0
LTYPE
  5
41
330
5
100
AcDbSymbolTableRecord
100
AcDbLinetypeTableRecord
  2
CENTER
 70
     0
  3
Center ____ _ ____ _ ____ _ ____ _ ____ _ ____
 72
    65
 73
     4
 40
0.4
 49
0.25
 74
     0
 49
-0.05
 74
     0
 49
0.05
 74
     0
 49
-0.05
 74
     0
  0
LTYPE
  5
42
330
5
100
AcDbSymbolTableRecord
100
AcDbLinetypeTableRecord
  2
CENTERX2
 70
     0
  3
Center (2x) ________  __  ________  __  _____
 72
    65
 73
     4
 40
0.8
 49
0.5
 74
     0
 49
-0.1
 74
     0
 49
0.1
 74
     0
 49
-0.1
 74
     0
  0
LTYPE
  5
43
330
5
100
AcDbSymbolTableRecord
100
AcDbLinetypeTableRecord
  2
DOT2
 70
     0
  3
Dot (.5x) ........................................
 72
    65
 73
     2
 40
0.025
 49
0.0
 74
     0
 49
-0.025
 74
     0
  0
ENDTAB
  0
TABLE
  2
LAYER
  5
2
102
{ACAD_XDICTIONARY
360
3ED
102
}
330
0
100
AcDbSymbolTable
 70
     3
  0
LAYER
  5
10
102
{ACAD_XDICTIONARY
360
3E6
102
}
330
2
100
AcDbSymbolTableRecord
100
AcDbLayerTableRecord
  2
0
 70
     0
 62
     7
  6
Continuous
370
    -3
390
F
  0
LAYER
  5
44
102
{ACAD_XDICTIONARY
360
3E8
102
}
330
2
100
AcDbSymbolTableRecord
100
AcDbLayerTableRecord
  2
FORMAT
 70
     0
 62
     7
  6
Continuous
370
    -3
390
F
  0
LAYER
  5
3CC
330
2
100
AcDbSymbolTableRecord
100
AcDbLayerTableRecord
  2
Defpoints
 70
     0
 62
     7
  6
Continuous
290
     0
370
    -3
390
F
  0
ENDTAB
  0
TABLE
  2
STYLE
  5
3
330
0
100
AcDbSymbolTable
 70
     1
  0
STYLE
  5
11
330
3
100
AcDbSymbolTableRecord
100
AcDbTextStyleTableRecord
  2
Standard
 70
     0
 40
0.0
 41
1.0
 50
0.0
 71
     0
 42
0.2
  3
txt
  4

  0
ENDTAB
  0
TABLE
  2
VIEW
  5
6
330
0
100
AcDbSymbolTable
 70
     0
  0
ENDTAB
  0
TABLE
  2
UCS
  5
7
330
0
100
AcDbSymbolTable
 70
     0
  0
ENDTAB
  0
TABLE
  2
APPID
  5
9
330
0
100
AcDbSymbolTable
 70
     5
  0
APPID
  5
12
330
9
100
AcDbSymbolTableRecord
100
AcDbRegAppTableRecord
  2
ACAD
 70
     0
  0
APPID
  5
3C0
330
9
100
AcDbSymbolTableRecord
100
AcDbRegAppTableRecord
  2
ACAD_NAV_VCDISPLAY
 70
     0
  0
APPID
  5
3DA
330
9
100
AcDbSymbolTableRecord
100
AcDbRegAppTableRecord
  2
ACAD_DSTYLE_DIMJAG
 70
     0
  0
APPID
  5
3DB
330
9
100
AcDbSymbolTableRecord
100
AcDbRegAppTableRecord
  2
ACAD_DSTYLE_DIMTALN
 70
     0
  0
APPID
  5
430
330
9
100
AcDbSymbolTableRecord
100
AcDbRegAppTableRecord
  2
ACAD_MLEADERVER
 70
     0
  0
ENDTAB
  0
TABLE
  2
DIMSTYLE
  5
A
330
0
100
AcDbSymbolTable
 70
     1
100
AcDbDimStyleTable
 71
     1
340
27
  0
DIMSTYLE
105
27
330
A
100
AcDbSymbolTableRecord
100
AcDbDimStyleTableRecord
  2
Standard
 70
     0
170
     1
171
     0
274
     0
277
     4
340
11
1001
ACAD_DSTYLE_DIMJAG
1070
   388
1040
1.5
1001
ACAD_DSTYLE_DIMTALN
1070
   392
1070
     0
  0
ENDTAB
  0
TABLE
  2
BLOCK_RECORD
  5
1
330
0
100
AcDbSymbolTable
 70
     2
  0
BLOCK_RECORD
  5
1F
102
{ACAD_XDICTIONARY
360
3AC
102
}
330
1
100
AcDbSymbolTableRecord
100
AcDbBlockTableRecord
  2
*Model_Space
340
22
  0
BLOCK_RECORD
  5
1B
330
1
100
AcDbSymbolTableRecord
100
AcDbBlockTableRecord
  2
*Paper_Space
340
1E
  0
BLOCK_RECORD
  5
23
330
1
100
AcDbSymbolTableRecord
100
AcDbBlockTableRecord
  2
*Paper_Space0
340
26
  0
ENDTAB
  0
ENDSEC
  0
SECTION
  2
BLOCKS
  0
BLOCK
  5
20
330
1F
100
AcDbEntity
  8
0
100
AcDbBlockBegin
  2
*Model_Space
 70
     0
 10
0.0
 20
0.0
 30
0.0
  3
*Model_Space
  1

  0
ENDBLK
  5
21
330
1F
100
AcDbEntity
  8
0
100
AcDbBlockEnd
  0
BLOCK
  5
1C
330
1B
100
AcDbEntity
 67
     1
  8
0
100
AcDbBlockBegin
  2
*Paper_Space
 70
     0
 10
0.0
 20
0.0
 30
0.0
  3
*Paper_Space
  1

  0
ENDBLK
  5
1D
330
1B
100
AcDbEntity
 67
     1
  8
0
100
AcDbBlockEnd
  0
BLOCK
  5
24
330
23
100
AcDbEntity
 67
     1
  8
0
100
AcDbBlockBegin
  2
*Paper_Space0
 70
     0
 10
0.0
 20
0.0
 30
0.0
  3
*Paper_Space0
  1

  0
ENDBLK
  5
25
330
23
100
AcDbEntity
 67
     1
  8
0
100
AcDbBlockEnd
  0
ENDSEC
  0
SECTION
  2
ENTITIES
  0
CIRCLE
  5
45
330
1F
100
AcDbEntity
  8
0
100
AcDbCircle
 10
6.956408912188726
 20
10.72060288335518
 30
0.0
 40
0.9842519685039373
  0
ARC
  5
46
330
1F
100
AcDbEntity
  8
0
100
AcDbCircle
 10
6.956408912188726
 20
10.72060288335518
 30
0.0
 40
1.464566929133857
100
AcDbArc
 50
97.72442344332837
 51
82.27557655667162
  0
ARC
  5
47
330
1F
100
AcDbEntity
  8
0
100
AcDbCircle
 10
6.956408912188726
 20
-25.89357034499128
 30
0.0
 40
39.37007874015749
100
AcDbArc
 50
88.12447055922957
 51
90.0
  0
ARC
  5
48
330
1F
100
AcDbEntity
  8
0
100
AcDbCircle
 10
8.195961757069021
 20
11.96015572823547
 30
0.0
 40
1.496062992125986
100
AcDbArc
 50
1.87552944077039
 51
88.12447055922955
  0
ARC
  5
49
330
1F
100
AcDbEntity
  8
0
100
AcDbCircle
 10
-29.65776431615774
 20
10.72060288335518
 30
0.0
 40
39.37007874015749
100
AcDbArc
 50
0.0
 51
1.875529440770432
  0
CIRCLE
  5
4A
330
1F
100
AcDbEntity
  8
0
100
AcDbCircle
 10
6.956408912188726
 20
10.72060288335517
 30
0.0
 40
1.06299212598425
  0
ELLIPSE
  5
4E
330
1F
100
AcDbEntity
  8
0
100
AcDbEllipse
 10
6.956408912188726
 20
12.21666587548116
 30
0.0
 11
0.0
 21
0.4724409448818907
 31
0.0
210
0.0
220
0.0
230
1.0
 40
0.416666666666667
 41
0.0
 42
1.570796326794896
  0
LINE
  5
53
330
1F
100
AcDbEntity
  8
0
100
AcDbLine
 10
4.200503400377702
 20
10.72060288335518
 30
0.0
 11
5.4997159988029
 21
10.72060288335518
 31
0.0
  0
LINE
  5
54
330
1F
100
AcDbEntity
  8
0
100
AcDbLine
 10
6.956408912188726
 20
7.964697371544156
 30
0.0
 11
6.956408912188726
 21
9.263909969969352
 31
0.0
  0
LINE
  5
6B
330
1F
100
AcDbEntity
  8
0
100
AcDbLine
 10
6.956408912188726
 20
12.68910682036304
 30
0.0
 11
6.956408912188726
 21
12.6889786226056
 31
0.0
  0
SPLINE
  5
6D
330
1F
100
AcDbEntity
  8
0
100
AcDbSpline
210
0.0
220
0.0
230
1.0
 70
     8
 71
     3
 72
    14
 73
    10
 74
     0
 42
0.0000000001
 43
0.0000000001
 40
0.0
 40
0.0
 40
0.0
 40
0.0
 40
0.0383462309286835
 40
0.1334989825146364
 40
0.2784880016373201
 40
0.4427561094821754
 40
0.6357415598199029
 40
0.8116087306556492
 40
0.9999999999999998
 40
0.9999999999999998
 40
0.9999999999999998
 40
0.9999999999999998
 10
7.230162969758493
 20
11.74832526435187
 30
0.0
 10
7.228902410254429
 20
11.74880404201777
 30
0.0
 10
7.224513884782272
 20
11.7504708637549
 30
0.0
 10
7.21185937518902
 20
11.75646847211152
 30
0.0
 10
7.195846327219777
 20
11.76737011051046
 30
0.0
 10
7.17835927219708
 20
11.78474812787871
 30
0.0
 10
7.164493832624336
 20
11.80680205467851
 30
0.0
 10
7.155114015070896
 20
11.83252475750803
 30
0.0
 10
7.154018729619528
 20
11.85025471552795
 30
0.0
 10
7.153452257593852
 20
11.85942449425741
 30
0.0
  0
SPLINE
  5
6E
330
1F
100
AcDbEntity
  8
0
100
AcDbSpline
210
0.0
220
0.0
230
1.0
 70
     8
 71
     3
 72
    16
 73
    12
 74
     0
 42
0.0000000001
 43
0.0000000001
 40
0.0
 40
0.0
 40
0.0
 40
0.0
 40
0.0331122694297445
 40
0.2133065500656387
 40
0.3765183590804277
 40
0.5247665131145975
 40
0.6582475661800425
 40
0.7760090401808771
 40
0.8758050866850856
 40
0.9524862004375156
 40
1.0
 40
1.0
 40
1.0
 40
1.0
 10
6.758886870646872
 20
11.85949738674869
 30
0.0
 10
6.759053805655749
 20
11.85791031967749
 30
0.0
 10
6.760129187423356
 20
11.84768656251705
 30
0.0
 10
6.756243522146549
 20
11.82954458089991
 30
0.0
 10
6.748343931973423
 20
11.80724311833056
 30
0.0
 10
6.737047615386653
 20
11.78884648320944
 30
0.0
 10
6.724361849273923
 20
11.77433124432741
 30
0.0
 10
6.711336940064438
 20
11.7634287015687
 30
0.0
 10
6.699516343696698
 20
11.75591859621426
 30
0.0
 10
6.689712664997944
 20
11.75109670140152
 30
0.0
 10
6.685279710604594
 20
11.74934908158842
 30
0.0
 10
6.683583775554652
 20
11.74868048691497
 30
0.0
  0
LINE
  5
6F
330
1F
100
AcDbEntity
  8
0
100
AcDbLine
 10
6.759558522887888
 20
12.21666582737505
 30
0.0
 11
6.759558522887888
 21
11.85981212977942
 31
0.0
  0
LINE
  5
70
330
1F
100
AcDbEntity
  8
0
100
AcDbLine
 10
7.153259301489565
 20
11.85921447001697
 30
0.0
 11
7.153259301489565
 21
12.21666582737505
 31
0.0
  0
SPLINE
  5
71
330
1F
100
AcDbEntity
  8
0
100
AcDbSpline
210
0.0
220
0.0
230
1.0
 70
    24
 71
     3
 72
     9
 73
     5
 74
     0
 42
0.0000000001
 43
0.0000000001
 40
0.0
 40
0.0
 40
0.0
 40
0.0
 40
0.3980240124200678
 40
1.0
 40
1.0
 40
1.0
 40
1.0
 10
6.759558522887888
 20
12.21666582737505
 30
0.0
 10
6.759558522887888
 20
12.21666920296198
 30
0.0
 10
6.759558522887888
 20
12.21667768382451
 30
0.0
 10
6.759558522887888
 20
12.21668612127355
 30
0.0
 10
6.759558522887888
 20
12.21669120041527
 30
0.0
  0
SPLINE
  5
72
330
1F
100
AcDbEntity
  8
0
100
AcDbSpline
210
0.0
220
0.0
230
1.0
 70
     8
 71
     3
 72
    17
 73
    13
 74
     0
 42
0.0000000001
 43
0.0000000001
 40
0.0
 40
0.0
 40
0.0
 40
0.0
 40
0.069006474219874
 40
0.4705108448363502
 40
0.8032658476026139
 40
0.9179919828861894
 40
0.9854950476656451
 40
0.9939808096174781
 40
0.9988482570251395
 40
0.9998830395247535
 40
0.9999939286434752
 40
1.0
 40
1.0
 40
1.0
 40
1.0
 10
6.77372441590895
 20
12.3903794872867
 30
0.0
 10
6.772960661111005
 20
12.38646242064803
 30
0.0
 10
6.767753107482288
 20
12.35975445803617
 30
0.0
 10
6.763342118039639
 20
12.31247883469566
 30
0.0
 10
6.76029028235872
 20
12.26291392700832
 30
0.0
 10
6.759653738339857
 20
12.23331511495137
 30
0.0
 10
6.759566676518492
 20
12.22246744999907
 30
0.0
 10
6.759559054161377
 20
12.21789450498254
 30
0.0
 10
6.759558560010326
 20
12.21708149045435
 30
0.0
 10
6.759558522530104
 20
12.2167420473519
 30
0.0
 10
6.759558522888562
 20
12.2166770152629
 30
0.0
 10
6.759558522887921
 20
12.21667042286704
 30
0.0
 10
6.759558522887888
 20
12.21667008065925
 30
0.0
  0
LINE
  5
73
330
1F
100
AcDbEntity
  8
0
100
AcDbLine
 10
6.759558522887888
 20
12.21666201408577
 30
0.0
 11
6.759558522887888
 21
12.21666582737505
 31
0.0
  0
CIRCLE
  5
74
330
1F
100
AcDbEntity
  8
0
100
AcDbCircle
 10
6.956408912188726
 20
10.72060288335518
 30
0.0
 40
1.062992125984254
  0
LINE
  5
75
330
1F
100
AcDbEntity
  8
0
100
AcDbLine
 10
6.762316319362921
 20
11.85981212977942
 30
0.0
 11
6.762258991691842
 21
11.85979650995986
 31
0.0
  0
SPLINE
  5
77
330
1F
100
AcDbEntity
  8
0
100
AcDbSpline
210
0.0
220
0.0
230
1.0
 70
     8
 71
     3
 72
    13
 73
     9
 74
     0
 42
0.0000000001
 43
0.0000000001
 40
0.0
 40
0.0
 40
0.0
 40
0.0
 40
0.1094357734119853
 40
0.2330406757032353
 40
0.3803814548342468
 40
0.5537901903118897
 40
0.8232698931410178
 40
1.0
 40
1.0
 40
1.0
 40
1.0
 10
6.956408912188725
 20
12.68910684969605
 30
0.0
 10
6.94274394850612
 20
12.68699702660342
 30
0.0
 10
6.913644758444511
 20
12.68250421238196
 30
0.0
 10
6.876092203092826
 20
12.65092233536329
 30
0.0
 10
6.843107194720331
 20
12.6066403632774
 30
0.0
 10
6.810959252538212
 20
12.54029644190719
 30
0.0
 10
6.786792960533335
 20
12.46673755290537
 30
0.0
 10
6.778369088223976
 20
12.41187758474685
 30
0.0
 10
6.775032649129461
 20
12.39014922328006
 30
0.0
  0
SPLINE
  5
78
330
1F
100
AcDbEntity
  8
0
100
AcDbSpline
210
0.0
220
0.0
230
1.0
 70
     8
 71
     3
 72
    15
 73
    11
 74
     0
 42
0.0000000001
 43
0.0000000001
 40
0.0
 40
0.0
 40
0.0
 40
0.0
 40
0.0745551076647478
 40
0.158763191647688
 40
0.259141772700572
 40
0.3772796223310757
 40
0.5608675628325212
 40
0.7702396363063496
 40
0.8259609185581757
 40
1.0
 40
1.0
 40
1.0
 40
1.0
 10
6.956408912188725
 20
12.68910684969605
 30
0.0
 10
6.970073156348884
 20
12.68699692554131
 30
0.0
 10
6.999170814205877
 20
12.6825038961107
 30
0.0
 10
7.036736845714602
 20
12.65092391191521
 30
0.0
 10
7.069655771917919
 20
12.60663265811333
 30
0.0
 10
7.102160517731487
 20
12.54033885237967
 30
0.0
 10
7.129179243408628
 20
12.45096119633264
 30
0.0
 10
7.145318946931397
 20
12.37023891343399
 30
0.0
 10
7.148837397407854
 20
12.2901806654781
 30
0.0
 10
7.151353444178774
 20
12.24835099943245
 30
0.0
 10
7.153259301489565
 20
12.21666582737505
 30
0.0
  0
ARC
  5
79
330
1F
100
AcDbEntity
  8
0
100
AcDbCircle
 10
6.956408912188726
 20
10.72060288335518
 30
0.0
 40
1.456692913385827
100
AcDbArc
 50
97.76643416851229
 51
202.5226735859352
  0
ARC
  5
7A
330
1F
100
AcDbEntity
  8
0
100
AcDbCircle
 10
6.956408912188726
 20
10.72060288335518
 30
0.0
 40
1.456692913385827
100
AcDbArc
 50
202.5226735859352
 51
82.2335658314877
  0
SPLINE
  5
7B
330
1F
100
AcDbEntity
  8
0
100
AcDbSpline
210
0.0
220
0.0
230
1.0
 70
     8
 71
     3
 72
    24
 73
    20
 74
     0
 42
0.0000000001
 43
0.0000000001
 40
0.0
 40
0.0
 40
0.0
 40
0.0
 40
0.0619944788689525
 40
0.1197802882772586
 40
0.1775660872173941
 40
0.2370307151138802
 40
0.2964952961914992
 40
0.3542812481838539
 40
0.4120672127627785
 40
0.4715319866378037
 40
0.5309967633666984
 40
0.5887827546770284
 40
0.6465687728822633
 40
0.7060335724526343
 40
0.7654983952562412
 40
0.8232843897068116
 40
0.8810703928311211
 40
0.9405351967972015
 40
1.0
 40
1.0
 40
1.0
 40
1.0
 10
6.759558522887888
 20
12.20216946150497
 30
0.0
 10
6.715509458790633
 20
12.19580003758255
 30
0.0
 10
6.630401725131549
 20
12.18349359598474
 30
0.0
 10
6.507448014229658
 20
12.14927062732216
 30
0.0
 10
6.389160783026911
 20
12.10694871378543
 30
0.0
 10
6.273855991404547
 20
12.05390183803826
 30
0.0
 10
6.163455230968696
 20
11.99134404243386
 30
0.0
 10
6.059757288323825
 20
11.92032186359451
 30
0.0
 10
5.962278701579391
 20
11.84098342997751
 30
0.0
 10
5.87099570199961
 20
11.75282872560011
 30
0.0
 10
5.787535050935692
 20
11.65723547161628
 30
0.0
 10
5.713188609941743
 20
11.55589687609843
 30
0.0
 10
5.647467749054706
 20
11.44876364802244
 30
0.0
 10
5.590506741785941
 20
11.33536343904538
 30
0.0
 10
5.543404661920704
 20
11.21753277100391
 30
0.0
 10
5.506749726373945
 20
11.09729776686201
 30
0.0
 10
5.480356281921539
 20
10.97444951451787
 30
0.0
 10
5.463525160854785
 20
10.8485883192239
 30
0.0
 10
5.461405699059629
 20
10.76326353230854
 30
0.0
 10
5.460345968168852
 20
10.72060113912466
 30
0.0
  0
LWPOLYLINE
  5
7C
330
1F
100
AcDbEntity
  8
0
100
AcDbPolyline
 90
        9
 70
   128
 43
0.0
 10
5.400598178380419
 20
10.72060288335518
 10
5.412216977492393
 20
10.72060221537521
 10
5.423409421529658
 20
10.72060164416543
 10
5.433739328864354
 20
10.72060119200499
 10
5.442803517487407
 20
10.72060087652989
 10
5.45024852481538
 20
10.72060071004455
 10
5.455784100867933
 20
10.72060069904274
 10
5.45919420814075
 20
10.72060084395346
 10
5.460345968168852
 20
10.72060113912466
  0
LWPOLYLINE
  5
7D
330
1F
100
AcDbEntity
  8
0
100
AcDbPolyline
 90
        9
 70
   128
 43
0.0
 10
6.956408912188726
 20
9.164792149546872
 10
6.956409567554671
 20
9.176410948658848
 10
6.95641012797784
 20
9.187603392696111
 10
6.956410571599742
 20
9.197933300030808
 10
6.956410881117474
 20
9.206997488653859
 10
6.956411044458939
 20
9.214442495981833
 10
6.956411055252895
 20
9.219978072034386
 10
6.956410913078748
 20
9.223388179307203
 10
6.956410623481531
 20
9.224539939335306
  0
SPLINE
  5
7E
330
1F
100
AcDbEntity
  8
0
100
AcDbSpline
210
0.0
220
0.0
230
1.0
 70
     8
 71
     3
 72
    25
 73
    21
 74
     0
 42
0.0000000001
 43
0.0000000001
 40
0.0
 40
0.0
 40
0.0
 40
0.0
 40
0.0700041409125369
 40
0.1408725803044311
 40
0.193799106016258
 40
0.2467256221401963
 40
0.3011897923150837
 40
0.3556539196081632
 40
0.4085805759139611
 40
0.4615072437479077
 40
0.5159715476258093
 40
0.570435854117595
 40
0.6233625464350685
 40
0.6762892633858196
 40
0.730753590798312
 40
0.7852179394903274
 40
0.8381446346839746
 40
0.8910713378219746
 40
0.9455356692605356
 40
1.0
 40
1.0
 40
1.0
 40
1.0
 10
6.956410623481531
 20
9.224539939335306
 30
0.0
 10
7.011255660463214
 20
9.226282143608372
 30
0.0
 10
7.121622872685055
 20
9.229788062089262
 30
0.0
 10
7.271631448341643
 20
9.25585047082411
 30
0.0
 10
7.405401320843494
 20
9.291676951830783
 30
0.0
 10
7.523648323997935
 20
9.334328479846059
 30
0.0
 10
7.638964199236323
 20
9.387284540341939
 30
0.0
 10
7.749361979307499
 20
9.44986675600621
 30
0.0
 10
7.853060698451928
 20
9.520882572481289
 30
0.0
 10
7.950539077871004
 20
9.600222704849347
 30
0.0
 10
8.041822134572983
 20
9.688376941187552
 30
0.0
 10
8.125282770276841
 20
9.783970321026306
 30
0.0
 10
8.199629215272667
 20
9.885308883754182
 30
0.0
 10
8.265350075091204
 20
9.992442120585096
 30
0.0
 10
8.322311082654362
 20
10.10584232715
 30
0.0
 10
8.369413162440437
 20
10.22367299584009
 30
0.0
 10
8.406068098007819
 20
10.34390799981302
 30
0.0
 10
8.432461542454726
 20
10.46675625220221
 30
0.0
 10
8.449292663522967
 20
10.592617447484
 30
0.0
 10
8.451412125317922
 20
10.677942234401
 30
0.0
 10
8.4524718562086
 20
10.72060462758569
 30
0.0
  0
LWPOLYLINE
  5
7F
330
1F
100
AcDbEntity
  8
0
100
AcDbPolyline
 90
        9
 70
   128
 43
0.0
 10
8.4524718562086
 20
10.72060462758569
 10
8.453623616236702
 20
10.72060427242399
 10
8.457033723509519
 20
10.72060393380037
 10
8.462569299562073
 20
10.72060362492226
 10
8.470014306890046
 20
10.72060335783698
 10
8.479078495513098
 20
10.72060314296185
 10
8.489408402847795
 20
10.72060298867775
 10
8.50060084688506
 20
10.72060290100231
 10
8.512219645997033
 20
10.72060288335518
  0
SPLINE
  5
80
330
1F
100
AcDbEntity
  8
0
100
AcDbSpline
210
0.0
220
0.0
230
1.0
 70
     8
 71
     3
 72
    24
 73
    20
 74
     0
 42
0.0000000001
 43
0.0000000001
 40
0.0
 40
0.0
 40
0.0
 40
0.0
 40
0.0764310625704416
 40
0.1538057815572235
 40
0.2115913105374996
 40
0.2693768703041618
 40
0.3288412008860659
 40
0.3883054987612655
 40
0.4460912227209124
 40
0.5038769189846591
 40
0.5633414397671518
 40
0.6228059397767739
 40
0.6805916785077183
 40
0.7383774509160764
 40
0.7978420275195801
 40
0.8573065810900178
 40
0.9150919472368233
 40
0.9728773210046785
 40
1.0
 40
1.0
 40
1.0
 40
1.0
 10
8.4524718562086
 20
10.72060462758569
 30
0.0
 10
8.450729675698271
 20
10.77544969515416
 30
0.0
 10
8.447223804839048
 20
10.88581697513476
 30
0.0
 10
8.421161070023643
 20
11.03582551621419
 30
0.0
 10
8.385334948794866
 20
11.16959550325524
 30
0.0
 10
8.34268307482368
 20
11.28784233027747
 30
0.0
 10
8.289727313130734
 20
11.40315827822951
 30
0.0
 10
8.227145018266076
 20
11.51355598532892
 30
0.0
 10
8.156129139587047
 20
11.61725461541043
 30
0.0
 10
8.076789098950431
 20
11.71473311168075
 30
0.0
 10
7.988634862630198
 20
11.80601595663218
 30
0.0
 10
7.893041498587068
 20
11.88947720529364
 30
0.0
 10
7.791702756128931
 20
11.96382114853021
 30
0.0
 10
7.684570670135921
 20
12.02955189008176
 30
0.0
 10
7.571165865075818
 20
12.08647485344006
 30
0.0
 10
7.4533524494233
 20
12.13371820316785
 30
0.0
 10
7.333056308545598
 20
12.16986002580704
 30
0.0
 10
7.233095809732361
 20
12.19294248114685
 30
0.0
 10
7.17258774781128
 20
12.20002253139506
 30
0.0
 10
7.153259301489565
 20
12.20228415351338
 30
0.0
  0
SPLINE
  5
81
330
1F
100
AcDbEntity
  8
0
100
AcDbSpline
210
0.0
220
0.0
230
1.0
 70
     8
 71
     3
 72
    25
 73
    21
 74
     0
 42
0.0000000001
 43
0.0000000001
 40
0.0
 40
0.0
 40
0.0
 40
0.0
 40
0.0700041760068142
 40
0.1408726588495899
 40
0.1937991550323937
 40
0.2467256794128374
 40
0.3011898111962528
 40
0.3556539130231842
 40
0.4085805877900575
 40
0.4615072371899056
 40
0.5159715431804435
 40
0.5704358301448468
 40
0.623362518440938
 40
0.676289237582598
 40
0.7307535947003052
 40
0.7852179307217364
 40
0.8381446276868164
 40
0.8910713325936374
 40
0.9455356658549808
 40
0.9999999999999998
 40
0.9999999999999998
 40
0.9999999999999998
 40
0.9999999999999998
 10
5.460345968168852
 20
10.72060113912466
 30
0.0
 10
5.462088148678962
 20
10.66575607155436
 30
0.0
 10
5.465594019537737
 20
10.55538879157006
 30
0.0
 10
5.491656754356229
 20
10.40538025051628
 30
0.0
 10
5.527482875576036
 20
10.27161026340064
 30
0.0
 10
5.570134749578763
 20
10.15336343664072
 30
0.0
 10
5.623090511150354
 20
10.03804748767944
 30
0.0
 10
5.685672806466395
 20
9.927649784333967
 30
0.0
 10
5.756688683507105
 20
9.823951140627331
 30
0.0
 10
5.836028730279767
 20
9.726472695387581
 30
0.0
 10
5.924182943048525
 20
9.635189654569771
 30
0.0
 10
6.019776394676742
 20
9.551729134311653
 30
0.0
 10
6.121114819244006
 20
9.477382547328524
 30
0.0
 10
6.228248095842017
 20
9.411661707470083
 30
0.0
 10
6.34164833110334
 20
9.354700739278134
 30
0.0
 10
6.459478995985892
 20
9.307598622739028
 30
0.0
 10
6.579713992740609
 20
9.270943699400522
 30
0.0
 10
6.70256224416346
 20
9.244550252576985
 30
0.0
 10
6.82842344093355
 20
9.227719131979467
 30
0.0
 10
6.91374822906814
 20
9.225599670222424
 30
0.0
 10
6.956410623481531
 20
9.224539939335306
 30
0.0
  0
SPLINE
  5
82
330
1F
100
AcDbEntity
  8
0
100
AcDbSpline
210
0.0
220
0.0
230
1.0
 70
     8
 71
     3
 72
    25
 73
    21
 74
     0
 42
0.0000000001
 43
0.0000000001
 40
0.0
 40
0.0
 40
0.0
 40
0.0
 40
0.1274607698742938
 40
0.254791178422956
 40
0.2867498045358027
 40
0.3181470285872478
 40
0.3490674668990652
 40
0.3796303684153894
 40
0.419979887561872
 40
0.4600538313867016
 40
0.4999999890323262
 40
0.539946146677951
 40
0.5800201156996287
 40
0.620369580480459
 40
0.6509325184252051
 40
0.6818529137225334
 40
0.7132501958264344
 40
0.7452088794525232
 40
0.8725392301257061
 40
0.9999999999999998
 40
0.9999999999999998
 40
0.9999999999999998
 40
0.9999999999999998
 10
4.200503388644505
 20
10.72060288335518
 30
0.0
 10
4.201394710194175
 20
10.92576272528453
 30
0.0
 10
4.203176441688643
 20
11.33587258058982
 30
0.0
 10
4.214603093814068
 20
11.79709083150789
 30
0.0
 10
4.224705975228691
 20
12.10406508504212
 30
0.0
 10
4.247372810533712
 20
12.25444878455539
 30
0.0
 10
4.283942763953039
 20
12.39961997815236
 30
0.0
 10
4.339885884754932
 20
12.55395593263273
 30
0.0
 10
4.419847920697077
 20
12.714275053495
 30
0.0
 10
4.528366793663752
 20
12.87540168185575
 30
0.0
 10
4.656220465296402
 20
13.02079131887909
 30
0.0
 10
4.801610117316877
 20
13.14864510118788
 30
0.0
 10
4.962736858164184
 20
13.2571635889267
 30
0.0
 10
5.123055689964759
 20
13.33712651764127
 30
0.0
 10
5.27739211033623
 20
13.39306762812958
 30
0.0
 10
5.422562264208939
 20
13.42964231236484
 30
0.0
 10
5.572946870923346
 20
13.45230466434072
 30
0.0
 10
5.879920894141868
 20
13.46240875428282
 30
0.0
 10
6.341139367617964
 20
13.47383533607046
 30
0.0
 10
6.75124909010213
 20
13.47561707928449
 30
0.0
 10
6.956408912188726
 20
13.4765084068994
 30
0.0
  0
SPLINE
  5
83
330
1F
100
AcDbEntity
  8
0
100
AcDbSpline
210
0.0
220
0.0
230
1.0
 70
    24
 71
     3
 72
    18
 73
    14
 74
     0
 42
0.0000000001
 43
0.0000000001
 40
0.0
 40
0.0
 40
0.0
 40
0.0
 40
0.018086371649183
 40
0.0384453448000822
 40
0.0627394561232047
 40
0.1082191866407802
 40
0.1654065786026884
 40
0.2598636214420055
 40
0.3742893444615534
 40
0.5073119375597094
 40
0.7170004169230108
 40
0.9543775431884711
 40
1.0
 40
1.0
 40
1.0
 40
1.0
 10
6.956408912188726
 20
13.4765084068994
 30
0.0
 10
6.956408912188726
 20
13.47586811889695
 30
0.0
 10
6.956408912188726
 20
13.47450708897327
 30
0.0
 10
6.956408912188726
 20
13.46446596080817
 30
0.0
 10
6.956408912188726
 20
13.44630432916065
 30
0.0
 10
6.956408912188726
 20
13.41592067721444
 30
0.0
 10
6.956408912188726
 20
13.36570295820795
 30
0.0
 10
6.956408912188726
 20
13.29500862115551
 30
0.0
 10
6.956408912188726
 20
13.20242467915018
 30
0.0
 10
6.956408912188726
 20
13.07722180915325
 30
0.0
 10
6.956408912188726
 20
12.91705874897991
 30
0.0
 10
6.956408912188726
 20
12.78049124628839
 30
0.0
 10
6.956408912188726
 20
12.70179370626901
 30
0.0
 10
6.956408912188726
 20
12.68910684969605
 30
0.0
  0
SPLINE
  5
84
330
1F
100
AcDbEntity
  8
0
100
AcDbSpline
210
0.0
220
0.0
230
1.0
 70
    24
 71
     3
 72
    19
 73
    15
 74
     0
 42
0.0000000001
 43
0.0000000001
 40
0.0
 40
0.0
 40
0.0
 40
0.0
 40
0.186950707211071
 40
0.3613528737491551
 40
0.5202000937085019
 40
0.6605187188784529
 40
0.749534326396573
 40
0.8261053434926633
 40
0.8893137869373241
 40
0.927582251859744
 40
0.9580162236196771
 40
0.9742732746075862
 40
0.9878970231849059
 40
1.0
 40
1.0
 40
1.0
 40
1.0
 10
5.400598178380419
 20
10.72060288335518
 30
0.0
 10
5.322791924376476
 20
10.72060288335518
 30
0.0
 10
5.172401942442689
 20
10.72060288335518
 30
0.0
 10
4.956214308481195
 20
10.72060288335518
 30
0.0
 10
4.759930656142468
 20
10.72060288335518
 30
0.0
 10
4.59979342879903
 20
10.72060288335518
 30
0.0
 10
4.474586485913514
 20
10.72060288335518
 30
0.0
 10
4.382003304353569
 20
10.72060288335518
 30
0.0
 10
4.311308818887205
 20
10.72060288335518
 30
0.0
 10
4.261091121387358
 20
10.72060288335518
 30
0.0
 10
4.230707466014087
 20
10.72060288335518
 30
0.0
 10
4.21254583479478
 20
10.72060288335518
 30
0.0
 10
4.202504706558747
 20
10.72060288335518
 30
0.0
 10
4.201143676643148
 20
10.72060288335518
 30
0.0
 10
4.200503388644505
 20
10.72060288335518
 30
0.0
  0
SPLINE
  5
85
330
1F
100
AcDbEntity
  8
0
100
AcDbSpline
210
0.0
220
0.0
230
1.0
 70
     8
 71
     3
 72
    25
 73
    21
 74
     0
 42
0.0000000001
 43
0.0000000001
 40
0.0
 40
0.0
 40
0.0
 40
0.0
 40
0.1274607698742938
 40
0.2547911205474769
 40
0.2867498041735657
 40
0.3181470862774665
 40
0.3490674815747949
 40
0.379630419519541
 40
0.4199798843003714
 40
0.4600538533220491
 40
0.5000000109676737
 40
0.5399461686132985
 40
0.580020112438128
 40
0.6203696315846104
 40
0.6509325331009346
 40
0.6818529714127523
 40
0.7132501954641973
 40
0.7452088215770441
 40
0.8725392301257063
 40
1.0
 40
1.0
 40
1.0
 40
1.0
 10
6.956408912188726
 20
13.4765084068994
 30
0.0
 10
7.161568734275322
 20
13.47561707928449
 30
0.0
 10
7.57167845675949
 20
13.47383533607046
 30
0.0
 10
8.032896930235585
 20
13.46240875428282
 30
0.0
 10
8.339870953454106
 20
13.45230466434072
 30
0.0
 10
8.490255560168515
 20
13.42964231236484
 30
0.0
 10
8.635425714041222
 20
13.39306762812958
 30
0.0
 10
8.789762134412693
 20
13.33712651764127
 30
0.0
 10
8.950080966213269
 20
13.2571635889267
 30
0.0
 10
9.111207707060575
 20
13.14864510118788
 30
0.0
 10
9.25659735908105
 20
13.02079131887909
 30
0.0
 10
9.3844510307137
 20
12.87540168185575
 30
0.0
 10
9.492969903680375
 20
12.714275053495
 30
0.0
 10
9.57293193962252
 20
12.55395593263273
 30
0.0
 10
9.628875060424414
 20
12.39961997815236
 30
0.0
 10
9.66544501384374
 20
12.25444878455539
 30
0.0
 10
9.688111849148761
 20
12.10406508504212
 30
0.0
 10
9.698214730563382
 20
11.79709083150789
 30
0.0
 10
9.709641382688809
 20
11.33587258058982
 30
0.0
 10
9.711423114183277
 20
10.92576272528453
 30
0.0
 10
9.712314435732947
 20
10.72060288335518
 30
0.0
  0
SPLINE
  5
86
330
1F
100
AcDbEntity
  8
0
100
AcDbSpline
210
0.0
220
0.0
230
1.0
 70
    24
 71
     3
 72
    19
 73
    15
 74
     0
 42
0.0000000001
 43
0.0000000001
 40
0.0
 40
0.0
 40
0.0
 40
0.0
 40
0.186950707211071
 40
0.3613528737491551
 40
0.5202000937085019
 40
0.6605187188784529
 40
0.749534326396573
 40
0.8261053434926633
 40
0.8893137869373241
 40
0.927582251859744
 40
0.9580162236196771
 40
0.9742732746075862
 40
0.9878970231849059
 40
1.0
 40
1.0
 40
1.0
 40
1.0
 10
8.512219645997033
 20
10.72060288335518
 30
0.0
 10
8.590025900000977
 20
10.72060288335518
 30
0.0
 10
8.740415881934763
 20
10.72060288335518
 30
0.0
 10
8.956603515896258
 20
10.72060288335518
 30
0.0
 10
9.152887168234984
 20
10.72060288335518
 30
0.0
 10
9.313024395578421
 20
10.72060288335518
 30
0.0
 10
9.438231338463939
 20
10.72060288335518
 30
0.0
 10
9.530814520023884
 20
10.72060288335518
 30
0.0
 10
9.601509005490248
 20
10.72060288335518
 30
0.0
 10
9.651726702990094
 20
10.72060288335518
 30
0.0
 10
9.682110358363365
 20
10.72060288335518
 30
0.0
 10
9.700271989582674
 20
10.72060288335518
 30
0.0
 10
9.710313117818705
 20
10.72060288335518
 30
0.0
 10
9.711674147734305
 20
10.72060288335518
 30
0.0
 10
9.712314435732947
 20
10.72060288335518
 30
0.0
  0
SPLINE
  5
87
330
1F
100
AcDbEntity
  8
0
100
AcDbSpline
210
0.0
220
0.0
230
1.0
 70
     8
 71
     3
 72
    25
 73
    21
 74
     0
 42
0.0000000001
 43
0.0000000001
 40
0.0
 40
0.0
 40
0.0
 40
0.0
 40
0.1274607698742938
 40
0.2547911205474769
 40
0.2867498041735657
 40
0.3181470862774665
 40
0.3490674815747949
 40
0.379630419519541
 40
0.4199798843003714
 40
0.4600538533220491
 40
0.5000000109676737
 40
0.5399461686132985
 40
0.580020112438128
 40
0.6203696315846104
 40
0.6509325331009346
 40
0.6818529714127523
 40
0.7132501954641973
 40
0.7452088215770441
 40
0.8725392301257063
 40
1.0
 40
1.0
 40
1.0
 40
1.0
 10
6.956408912188726
 20
7.964697359810958
 30
0.0
 10
6.75124909010213
 20
7.96558868742587
 30
0.0
 10
6.341139367617963
 20
7.967370430639894
 30
0.0
 10
5.879920894141868
 20
7.978797012427535
 30
0.0
 10
5.572946870923346
 20
7.988901102369637
 30
0.0
 10
5.422562264208937
 20
8.011563454345523
 30
0.0
 10
5.27739211033623
 20
8.048138138580778
 30
0.0
 10
5.123055689964759
 20
8.104079249069087
 30
0.0
 10
4.962736858164184
 20
8.184042177783657
 30
0.0
 10
4.801610117316877
 20
8.292560665522481
 30
0.0
 10
4.656220465296402
 20
8.420414447831268
 30
0.0
 10
4.528366793663752
 20
8.565804084854605
 30
0.0
 10
4.419847920697077
 20
8.726930713215361
 30
0.0
 10
4.339885884754932
 20
8.88724983407763
 30
0.0
 10
4.283942763953039
 20
9.041585788557998
 30
0.0
 10
4.247372810533713
 20
9.186756982154967
 30
0.0
 10
4.22470597522869
 20
9.337140681668236
 30
0.0
 10
4.21460309381407
 20
9.644114935202468
 30
0.0
 10
4.203176441688643
 20
10.10533318612053
 30
0.0
 10
4.201394710194175
 20
10.51544304142582
 30
0.0
 10
4.200503388644505
 20
10.72060288335518
 30
0.0
  0
SPLINE
  5
88
330
1F
100
AcDbEntity
  8
0
100
AcDbSpline
210
0.0
220
0.0
230
1.0
 70
    24
 71
     3
 72
    19
 73
    15
 74
     0
 42
0.0000000001
 43
0.0000000001
 40
0.0
 40
0.0
 40
0.0
 40
0.0
 40
0.0121029768151079
 40
0.0257267253924275
 40
0.0419837763803362
 40
0.0724177481402691
 40
0.1106862130626883
 40
0.1738946565073482
 40
0.2504656736034376
 40
0.3394812811215565
 40
0.4797999062915056
 40
0.63864712625085
 40
0.8130492927889315
 40
1.0
 40
1.0
 40
1.0
 40
1.0
 10
6.956408912188726
 20
7.964697359810958
 30
0.0
 10
6.956408912188726
 20
7.965337647809601
 30
0.0
 10
6.956408912188726
 20
7.966698677725196
 30
0.0
 10
6.956408912188726
 20
7.976739805961233
 30
0.0
 10
6.956408912188726
 20
7.994901437180542
 30
0.0
 10
6.956408912188726
 20
8.02528509255381
 30
0.0
 10
6.956408912188726
 20
8.07550279005366
 30
0.0
 10
6.956408912188726
 20
8.146197275520021
 30
0.0
 10
6.956408912188726
 20
8.238780457079968
 30
0.0
 10
6.956408912188726
 20
8.363987399965484
 30
0.0
 10
6.956408912188726
 20
8.524124627308919
 30
0.0
 10
6.956408912188726
 20
8.720408279647649
 30
0.0
 10
6.956408912188726
 20
8.93659591360914
 30
0.0
 10
6.956408912188726
 20
9.086985895542929
 30
0.0
 10
6.956408912188726
 20
9.164792149546872
 30
0.0
  0
SPLINE
  5
89
330
1F
100
AcDbEntity
  8
0
100
AcDbSpline
210
0.0
220
0.0
230
1.0
 70
     8
 71
     3
 72
    25
 73
    21
 74
     0
 42
0.0000000001
 43
0.0000000001
 40
0.0
 40
0.0
 40
0.0
 40
0.0
 40
0.1274607698742938
 40
0.254791178422956
 40
0.2867498045358027
 40
0.3181470285872478
 40
0.3490674668990652
 40
0.3796303684153894
 40
0.419979887561872
 40
0.4600538313867016
 40
0.4999999890323262
 40
0.539946146677951
 40
0.5800201156996287
 40
0.620369580480459
 40
0.6509325184252051
 40
0.6818529137225334
 40
0.7132501958264344
 40
0.7452088794525232
 40
0.8725392301257061
 40
0.9999999999999998
 40
0.9999999999999998
 40
0.9999999999999998
 40
0.9999999999999998
 10
9.712314435732947
 20
10.72060288335518
 30
0.0
 10
9.711423114183277
 20
10.51544304142582
 30
0.0
 10
9.709641382688809
 20
10.10533318612053
 30
0.0
 10
9.698214730563384
 20
9.644114935202468
 30
0.0
 10
9.688111849148761
 20
9.337140681668236
 30
0.0
 10
9.66544501384374
 20
9.186756982154967
 30
0.0
 10
9.628875060424412
 20
9.041585788557997
 30
0.0
 10
9.57293193962252
 20
8.88724983407763
 30
0.0
 10
9.492969903680375
 20
8.726930713215361
 30
0.0
 10
9.3844510307137
 20
8.565804084854605
 30
0.0
 10
9.25659735908105
 20
8.420414447831268
 30
0.0
 10
9.111207707060575
 20
8.292560665522479
 30
0.0
 10
8.950080966213269
 20
8.184042177783659
 30
0.0
 10
8.789762134412693
 20
8.104079249069087
 30
0.0
 10
8.635425714041222
 20
8.048138138580776
 30
0.0
 10
8.490255560168513
 20
8.011563454345523
 30
0.0
 10
8.339870953454106
 20
7.988901102369637
 30
0.0
 10
8.032896930235585
 20
7.978797012427535
 30
0.0
 10
7.571678456759489
 20
7.967370430639894
 30
0.0
 10
7.161568734275322
 20
7.965588687425868
 30
0.0
 10
6.956408912188726
 20
7.964697359810958
 30
0.0
  0
ARC
  5
8B
330
1F
100
AcDbEntity
  8
0
100
AcDbCircle
 10
15.11004707093777
 20
-26.68097191979443
 30
0.0
 40
39.37007874015748
100
AcDbArc
 50
90.0
 51
90.28849960536726
  0
ARC
  5
8C
330
1F
100
AcDbEntity
  8
0
100
AcDbCircle
 10
14.91319667723699
 20
12.41302067089031
 30
0.0
 40
0.2755905511811066
100
AcDbArc
 50
90.28849960536701
 51
180.0
  0
ELLIPSE
  5
8E
330
1F
100
AcDbEntity
  8
0
100
AcDbEllipse
 10
17.11792108668581
 20
12.18516981248904
 30
0.0
 11
0.0
 21
1.291338582677166
 31
0.0
210
0.0
220
0.0
230
1.0
 40
0.1676829268292685
 41
0.0
 42
1.570796326794896
  0
ELLIPSE
  5
93
330
1F
100
AcDbEntity
  8
0
100
AcDbEllipse
 10
14.40138565361494
 20
10.72060288335517
 30
0.0
 11
0.0
 21
-1.06299212598425
 31
0.0
210
0.0
220
0.0
230
1.0
 40
0.2222222222222222
 41
3.141592653589792
 42
4.712388980384693
  0
LINE
  5
97
330
1F
100
AcDbEntity
  8
0
100
AcDbLine
 10
17.11792108668581
 20
13.4765083951662
 30
0.0
 11
17.11792108668581
 21
7.964697371544156
 31
0.0
  0
LINE
  5
9A
330
1F
100
AcDbEntity
  8
0
100
AcDbLine
 10
16.90138565361494
 20
11.70485485185912
 30
0.0
 11
16.90138565361494
 21
9.736350914851241
 31
0.0
  0
LINE
  5
9D
330
1F
100
AcDbEntity
  8
0
100
AcDbLine
 10
17.11792108668581
 20
12.18516981248904
 30
0.0
 11
16.90138565361494
 21
12.18516981248904
 31
0.0
  0
LINE
  5
9E
330
1F
100
AcDbEntity
  8
0
100
AcDbLine
 10
17.11792108668581
 20
10.72060288335518
 30
0.0
 11
16.90138565361494
 21
10.72060288335518
 31
0.0
  0
LINE
  5
9F
330
1F
100
AcDbEntity
  8
0
100
AcDbLine
 10
17.11792108668581
 20
13.4765083951662
 30
0.0
 11
17.11792108668581
 21
10.72060288335518
 31
0.0
  0
LINE
  5
A3
330
1F
100
AcDbEntity
  8
0
100
AcDbLine
 10
16.90138565361494
 20
10.72060288335518
 30
0.0
 11
16.90138565361494
 21
11.70485485185912
 31
0.0
  0
LINE
  5
B8
330
1F
100
AcDbEntity
  8
0
100
AcDbLine
 10
16.2911494331425
 20
11.78359500933942
 30
0.0
 11
14.40138565361494
 21
11.78359500933942
 31
0.0
  0
LINE
  5
BA
330
1F
100
AcDbEntity
  8
0
100
AcDbLine
 10
16.2911494331425
 20
11.78359500933942
 30
0.0
 11
16.2911494331425
 21
9.657610757370919
 31
0.0
  0
LINE
  5
BB
330
1F
100
AcDbEntity
  8
0
100
AcDbLine
 10
16.2911494331425
 20
9.657610757370919
 30
0.0
 11
14.40138565361494
 21
9.657610757370919
 31
0.0
  0
LINE
  5
BC
330
1F
100
AcDbEntity
  8
0
100
AcDbLine
 10
14.40138565361494
 20
11.78359500933942
 30
0.0
 11
14.40138565361494
 21
9.657610757370919
 31
0.0
  0
LINE
  5
C5
330
1F
100
AcDbEntity
  8
0
100
AcDbLine
 10
14.82461404583111
 20
9.657610729797912
 30
0.0
 11
16.27146436502609
 21
9.657610729797912
 31
0.0
  0
LINE
  5
C6
330
1F
100
AcDbEntity
  8
0
100
AcDbLine
 10
14.40138572166749
 20
9.657610729797912
 30
0.0
 11
14.60942763834952
 21
9.657610729797912
 31
0.0
  0
LINE
  5
C7
330
1F
100
AcDbEntity
  8
0
100
AcDbLine
 10
14.52174075798251
 20
11.78359503691244
 30
0.0
 11
14.40138572166749
 21
11.78359503691244
 31
0.0
  0
LINE
  5
C8
330
1F
100
AcDbEntity
  8
0
100
AcDbLine
 10
16.27146436502609
 20
11.78359503691244
 30
0.0
 11
15.70059831305277
 21
11.78359503691244
 31
0.0
  0
ARC
  5
C9
330
1F
100
AcDbEntity
  8
0
100
AcDbCircle
 10
16.27146439377242
 20
9.677295796741008
 30
0.0
 40
0.0196850393700814
100
AcDbArc
 50
270.0000000000008
 51
359.9999999999956
  0
ARC
  5
CA
330
1F
100
AcDbEntity
  8
0
100
AcDbCircle
 10
16.27146439377242
 20
11.76390996996935
 30
0.0
 40
0.0196850393700796
100
AcDbArc
 50
0.0000000000051703
 51
90.0
  0
ELLIPSE
  5
CB
330
1F
100
AcDbEntity
  8
0
100
AcDbEllipse
 10
14.40138565361494
 20
10.72060288335518
 30
0.0
 11
0.0
 21
1.062992125984251
 31
0.0000000000000001
210
0.0
220
-0.0000000000000001
230
1.0
 40
0.2222222222222218
 41
1.570796326794896
 42
3.141592653589792
  0
ELLIPSE
  5
CC
330
1F
100
AcDbEntity
  8
0
100
AcDbEllipse
 10
14.40138565361494
 20
10.72060288335518
 30
0.0
 11
0.0
 21
-1.062992125984251
 31
0.0000000000000001
210
0.0
220
0.0000000000000001
230
1.0
 40
0.2222222222222218
 41
3.141592653589792
 42
4.712388980384693
  0
SPLINE
  5
CD
330
1F
100
AcDbEntity
  8
0
100
AcDbSpline
210
0.0
220
0.0
230
1.0
 70
     8
 71
     3
 72
    16
 73
    12
 74
     0
 42
0.0000000001
 43
0.0000000001
 40
0.0
 40
0.0
 40
0.0
 40
0.0
 40
0.0769264337107944
 40
0.243720331774853
 40
0.3913181360964909
 40
0.5243393275591595
 40
0.6452248169270577
 40
0.7545191141936203
 40
0.8517862467224981
 40
0.9358318654044957
 40
1.0
 40
1.0
 40
1.0
 40
1.0
 10
14.63726582342709
 20
11.90114899225245
 30
0.0
 10
14.63741498552741
 20
11.89644068374033
 30
0.0
 10
14.63788756478036
 20
11.88152369802661
 30
0.0
 10
14.63090968283128
 20
11.85812114077047
 30
0.0
 10
14.61803851418095
 20
11.83390003318069
 30
0.0
 10
14.60178966845765
 20
11.81525549730888
 30
0.0
 10
14.58416212974188
 20
11.80160774394521
 30
0.0
 10
14.56633827923406
 20
11.79232093481602
 30
0.0
 10
14.54942906789553
 20
11.78676602591485
 30
0.0
 10
14.53463856347056
 20
11.78397704381552
 30
0.0
 10
14.52559322363427
 20
11.78362575831269
 30
0.0
 10
14.52167710538449
 20
11.7834736716478
 30
0.0
  0
SPLINE
  5
CE
330
1F
100
AcDbEntity
  8
0
100
AcDbSpline
210
0.0
220
0.0
230
1.0
 70
     8
 71
     3
 72
    16
 73
    12
 74
     0
 42
0.0000000001
 43
0.0000000001
 40
0.0
 40
0.0
 40
0.0
 40
0.0
 40
0.0042394243548301
 40
0.0794090294818217
 40
0.1948416293520186
 40
0.3203039227566371
 40
0.462360937167407
 40
0.6005352196917235
 40
0.7483616655877632
 40
0.899758799881819
 40
1.0
 40
1.0
 40
1.0
 40
1.0
 10
15.70250906431294
 20
11.78345739183586
 30
0.0
 10
15.70224662724888
 20
11.78344197456594
 30
0.0
 10
15.69733089558038
 20
11.78315319233054
 30
0.0
 10
15.6850286376891
 20
11.78400479867328
 30
0.0
 10
15.66553953233888
 20
11.7877325533546
 30
0.0
 10
15.64317311107652
 20
11.79694230644585
 30
0.0
 10
15.622058727842
 20
11.81144771012313
 30
0.0
 10
15.60366880710048
 20
11.83131853109638
 30
0.0
 10
15.59021521555056
 20
11.85536382874185
 30
0.0
 10
15.58249455497206
 20
11.8796511112722
 30
0.0
 10
15.5826866183609
 20
11.89548021915483
 30
0.0
 10
15.58276312762822
 20
11.90178581156253
 30
0.0
  0
LINE
  5
CF
330
1F
100
AcDbEntity
  8
0
100
AcDbLine
 10
15.58248798414003
 20
11.90170521916021
 30
0.0
 11
15.58248798414003
 21
12.21666582737505
 31
0.0
  0
LINE
  5
D0
330
1F
100
AcDbEntity
  8
0
100
AcDbLine
 10
14.63760608616302
 20
12.21666582737505
 30
0.0
 11
14.63760608616302
 21
11.90114884558748
 31
0.0
  0
ARC
  5
D3
330
1F
100
AcDbEntity
  8
0
100
AcDbCircle
 10
16.70453525991417
 20
11.98044540304022
 30
0.0
 40
0.1968503937007888
100
AcDbArc
 50
270.0000000000008
 51
0.0000000000000199
  0
ARC
  5
D4
330
1F
100
AcDbEntity
  8
0
100
AcDbCircle
 10
16.70453525991416
 20
9.460760363670141
 30
0.0
 40
0.196850393700787
100
AcDbArc
 50
0.0000000000000199
 51
90.0
  0
LINE
  5
D5
330
1F
100
AcDbEntity
  8
0
100
AcDbLine
 10
16.70453526548743
 20
11.78359503691244
 30
0.0
 11
16.40925969986929
 21
11.78359503691244
 31
0.0
  0
LINE
  5
D6
330
1F
100
AcDbEntity
  8
0
100
AcDbLine
 10
16.40925969986929
 20
9.657610729797912
 30
0.0
 11
16.70453526548743
 21
9.657610729797912
 31
0.0
  0
ARC
  5
D7
330
1F
100
AcDbEntity
  8
0
100
AcDbCircle
 10
16.40925966936298
 20
11.76390996996935
 30
0.0
 40
0.0196850393700796
100
AcDbArc
 50
90.0
 51
180.0
  0
ARC
  5
D8
330
1F
100
AcDbEntity
  8
0
100
AcDbCircle
 10
16.40925966936298
 20
9.67729579674101
 30
0.0
 40
0.0196850393700814
100
AcDbArc
 50
180.0
 51
270.0000000000008
  0
ARC
  5
D9
330
1F
100
AcDbEntity
  8
0
100
AcDbCircle
 10
16.35020455125274
 20
9.834776111701639
 30
0.0
 40
0.0393700787401574
100
AcDbArc
 50
0.0000000000000994
 51
90.0
  0
ARC
  5
DA
330
1F
100
AcDbEntity
  8
0
100
AcDbCircle
 10
16.35020455125275
 20
11.60642965500872
 30
0.0
 40
0.0393700787401592
100
AcDbArc
 50
270.0000000000008
 51
0.0000000000000994
  0
LINE
  5
DB
330
1F
100
AcDbEntity
  8
0
100
AcDbLine
 10
16.35020453541292
 20
11.5670596050149
 30
0.0
 11
16.29114944428904
 21
11.5670596050149
 31
0.0
  0
LINE
  5
DC
330
1F
100
AcDbEntity
  8
0
100
AcDbLine
 10
16.29114944428904
 20
9.87414616169546
 30
0.0
 11
16.35020453541292
 21
9.87414616169546
 31
0.0
  0
LINE
  5
DD
330
1F
100
AcDbEntity
  8
0
100
AcDbLine
 10
17.31477147598665
 20
13.39776838317754
 30
0.0
 11
17.25571636652964
 21
13.39776838317754
 31
0.0
  0
SPLINE
  5
F1
330
1F
100
AcDbEntity
  8
0
100
AcDbSpline
210
0.0
220
0.0
230
1.0
 70
     8
 71
     3
 72
    17
 73
    13
 74
     0
 42
0.0000000001
 43
0.0000000001
 40
0.0
 40
0.0
 40
0.0
 40
0.0
 40
0.1069931905772978
 40
0.2139731345533466
 40
0.3212983128211089
 40
0.4288569918011706
 40
0.5360374688194537
 40
0.6428182284279848
 40
0.7498017364787279
 40
0.8572723417319789
 40
0.9647573551429092
 40
1.0
 40
1.0
 40
1.0
 40
1.0
 10
14.82461404583111
 20
9.657610729797912
 30
0.0
 10
14.82342330480658
 20
9.657735423185842
 30
0.0
 10
14.82104197018065
 20
9.657984794523674
 30
0.0
 10
14.80248658476538
 20
9.659720469740154
 30
0.0
 10
14.77511020973299
 20
9.661659819751532
 30
0.0
 10
14.74083436631207
 20
9.663064035006295
 30
0.0
 10
14.70387952262686
 20
9.663278276661847
 30
0.0
 10
14.66845639009288
 20
9.662231301482314
 30
0.0
 10
14.63817019856111
 20
9.660355065550316
 30
0.0
 10
14.61743671899294
 20
9.658564077155141
 30
0.0
 10
14.60752842025734
 20
9.657555512631374
 30
0.0
 10
14.60905154488025
 20
9.657708948220314
 30
0.0
 10
14.60942763834952
 20
9.657746834892282
 30
0.0
  0
LINE
  5
F2
330
1F
100
AcDbEntity
  8
0
100
AcDbLine
 10
15.70059831305277
 20
11.78359503691244
 30
0.0
 11
15.70050034085122
 21
11.78358007708526
 31
0.0
  0
LINE
  5
F3
330
1F
100
AcDbEntity
  8
0
100
AcDbLine
 10
16.29114944428904
 20
10.72060288335518
 30
0.0
 11
16.29114944428904
 21
9.677295809060865
 31
0.0
  0
LINE
  5
F4
330
1F
100
AcDbEntity
  8
0
100
AcDbLine
 10
16.29114944428904
 20
11.76390995764949
 30
0.0
 11
16.29114944428904
 21
10.72060288335518
 31
0.0
  0
SPLINE
  5
F5
330
1F
100
AcDbEntity
  8
0
100
AcDbSpline
210
0.0
220
0.0
230
1.0
 70
     8
 71
     3
 72
    17
 73
    13
 74
     0
 42
0.0000000001
 43
0.0000000001
 40
0.0
 40
0.0
 40
0.0
 40
0.0
 40
0.117326539002555
 40
0.2346543233724318
 40
0.3480295644481038
 40
0.4574045927425747
 40
0.5659187592976024
 40
0.6522079966683434
 40
0.7409921545901193
 40
0.8296167054506506
 40
0.9129032229696608
 40
1.0
 40
1.0
 40
1.0
 40
1.0
 10
15.58248798414003
 20
12.21666582737505
 30
0.0
 10
15.58227927829783
 20
12.24892290970898
 30
0.0
 10
15.58186186439811
 20
12.31343741677094
 30
0.0
 10
15.5849573390697
 20
12.40886982087255
 30
0.0
 10
15.57372958654076
 20
12.50309345890252
 30
0.0
 10
15.52861202047077
 20
12.58457900032302
 30
0.0
 10
15.46650862427462
 20
12.64246268761575
 30
0.0
 10
15.39582757318473
 20
12.67748223844346
 30
0.0
 10
15.323693206177
 20
12.69075366271497
 30
0.0
 10
15.25196797176589
 20
12.68832757639707
 30
0.0
 10
15.18081029786521
 20
12.68922053463443
 30
0.0
 10
15.13398389586207
 20
12.68914530545563
 30
0.0
 10
15.11004710848401
 20
12.68910684969605
 30
0.0
  0
SPLINE
  5
F6
330
1F
100
AcDbEntity
  8
0
100
AcDbSpline
210
0.0
220
0.0
230
1.0
 70
     8
 71
     3
 72
    17
 73
    13
 74
     0
 42
0.0000000001
 43
0.0000000001
 40
0.0
 40
0.0
 40
0.0
 40
0.0
 40
0.1173265247402082
 40
0.2346542948475869
 40
0.3480295504014541
 40
0.4574044808045721
 40
0.5659186341684951
 40
0.6522078610498188
 40
0.7409920081788921
 40
0.8296165482661226
 40
0.9129030556607297
 40
1.0
 40
1.0
 40
1.0
 40
1.0
 10
14.63760608616302
 20
12.21666582737505
 30
0.0
 10
14.63781479751755
 20
12.24892290844188
 30
0.0
 10
14.63823222244198
 20
12.31343741296964
 30
0.0
 10
14.63513666576153
 20
12.40886984361367
 30
0.0
 10
14.6463647152972
 20
12.50309339785621
 30
0.0
 10
14.69148201035722
 20
12.58457904229077
 30
0.0
 10
14.75358545775651
 20
12.64246268226822
 30
0.0
 10
14.82426649419156
 20
12.67748223978065
 30
0.0
 10
14.89640086491973
 20
12.69075366234168
 30
0.0
 10
14.96812609833897
 20
12.68832757652907
 30
0.0
 10
15.03928382136669
 20
12.6892205350748
 30
0.0
 10
15.08611027223039
 20
12.68914530563
 30
0.0
 10
15.11004710848401
 20
12.68910684969605
 30
0.0
  0
LINE
  5
FF
330
1F
100
AcDbEntity
  8
0
100
AcDbLine
 10
16.90138565478827
 20
12.15761073625117
 30
0.0
 11
16.90138565478827
 21
9.283595030459187
 31
0.0
  0
LINE
  5
100
330
1F
100
AcDbEntity
  8
0
100
AcDbLine
 10
16.38957462060634
 20
11.76390995764949
 30
0.0
 11
16.38957462060634
 21
9.677295809060865
 31
0.0
  0
LINE
  5
101
330
1F
100
AcDbEntity
  8
0
100
AcDbLine
 10
17.31477147598665
 20
11.92978664809448
 30
0.0
 11
17.31477147598665
 21
9.511419118615879
 31
0.0
  0
LINE
  5
102
330
1F
100
AcDbEntity
  8
0
100
AcDbLine
 10
17.31477147598665
 20
9.511419118615879
 30
0.0
 11
17.31477147598665
 21
8.062011035635071
 31
0.0
  0
LINE
  5
103
330
1F
100
AcDbEntity
  8
0
100
AcDbLine
 10
17.31477147598665
 20
11.92978664809448
 30
0.0
 11
17.31477147598665
 21
13.37919473107529
 31
0.0
  0
LINE
  5
104
330
1F
100
AcDbEntity
  8
0
100
AcDbLine
 10
17.31477147598665
 20
13.37919473107529
 30
0.0
 11
17.31477147598665
 21
13.39776838317754
 31
0.0
  0
LINE
  5
105
330
1F
100
AcDbEntity
  8
0
100
AcDbLine
 10
17.25571636652964
 20
8.046272417448932
 30
0.0
 11
17.31477147598665
 21
8.046272417448932
 31
0.0
  0
LINE
  5
106
330
1F
100
AcDbEntity
  8
0
100
AcDbLine
 10
17.31477147598665
 20
8.062011035635071
 30
0.0
 11
17.31477147598665
 21
8.046272417448932
 31
0.0
  0
LINE
  5
198
330
1F
100
AcDbEntity
  8
0
100
AcDbLine
 10
17.25571636652964
 20
10.72060288335518
 30
0.0
 11
17.11792108668581
 21
10.72060288335518
 31
0.0
  0
LINE
  5
199
330
1F
100
AcDbEntity
  8
0
100
AcDbLine
 10
17.25571636652964
 20
7.964697359810958
 30
0.0
 11
17.11792108668581
 21
7.964697359810958
 31
0.0
  0
SPLINE
  5
19A
330
1F
100
AcDbEntity
  8
0
100
AcDbSpline
210
0.0
220
0.0
230
1.0
 70
    24
 71
     3
 72
    43
 73
    39
 74
     0
 42
0.0000000001
 43
0.0000000001
 40
0.0
 40
0.0
 40
0.0
 40
0.0
 40
0.0179558469578578
 40
0.0358624929840504
 40
0.0537306271879908
 40
0.0715572859200959
 40
0.0893685919190302
 40
0.1071572228381359
 40
0.12492327358294
 40
0.1426821640238426
 40
0.1650312998452642
 40
0.1874073370209052
 40
0.2097791553716556
 40
0.2324517261259072
 40
0.2547884956441242
 40
0.2803941650704187
 40
0.3056551859339258
 40
0.3305637353255835
 40
0.3552062501305129
 40
0.3796423179904603
 40
0.4199871293234999
 40
0.4600635737775801
 40
0.5000094566722543
 40
0.5399590766194136
 40
0.5800355946639085
 40
0.6203766298811942
 40
0.6509389080382788
 40
0.6818587156985564
 40
0.713255299373966
 40
0.7452132736604521
 40
0.8877677715235599
 40
0.903735620862866
 40
0.9197194345954272
 40
0.935719274056365
 40
0.9517379596663449
 40
0.9677907602836327
 40
0.9838755143933285
 40
0.9999999999999998
 40
0.9999999999999998
 40
0.9999999999999998
 40
0.9999999999999998
 10
17.25571636652964
 20
7.964697359810958
 30
0.0
 10
17.25571636652964
 20
7.964715212233287
 30
0.0
 10
17.25571636652964
 20
7.964750868160409
 30
0.0
 10
17.25571636652964
 20
7.965039934682185
 30
0.0
 10
17.25571636652964
 20
7.965502694357558
 30
0.0
 10
17.25571636652964
 20
7.966156401585323
 30
0.0
 10
17.25571636652964
 20
7.966997708365092
 30
0.0
 10
17.25571636652964
 20
7.968027064267926
 30
0.0
 10
17.25571636652964
 20
7.969245388932517
 30
0.0
 10
17.25571636652964
 20
7.970773556629558
 30
0.0
 10
17.25571636652964
 20
7.972676725927068
 30
0.0
 10
17.25571636652964
 20
7.975013113379601
 30
0.0
 10
17.25571636652964
 20
7.977685539227289
 30
0.0
 10
17.25571636652964
 20
7.980570303915617
 30
0.0
 10
17.25571636652964
 20
7.984168544599501
 30
0.0
 10
17.25571636652964
 20
7.987426284477514
 30
0.0
 10
17.25571636652964
 20
8.001805230190587
 30
0.0
 10
17.25571636652964
 20
8.025372281065278
 30
0.0
 10
17.25571636652964
 20
8.058071382267709
 30
0.0
 10
17.25571636652964
 20
8.108478132109864
 30
0.0
 10
17.25571636652964
 20
8.184042668644689
 30
0.0
 10
17.25571636652964
 20
8.292554934708959
 30
0.0
 10
17.25571636652964
 20
8.420418680764687
 30
0.0
 10
17.25571636652964
 20
8.565818667877573
 30
0.0
 10
17.25571636652964
 20
8.726947672285058
 30
0.0
 10
17.25571636652964
 20
8.887261438422237
 30
0.0
 10
17.25571636652964
 20
9.041585790617297
 30
0.0
 10
17.25571636652964
 20
9.186756979804652
 30
0.0
 10
17.25571636652964
 20
9.337140689145646
 30
0.0
 10
17.25571636652964
 20
9.668627885626627
 30
0.0
 10
17.25571636652964
 20
9.974984494588406
 30
0.0
 10
17.25571636652964
 20
10.25583230602602
 30
0.0
 10
17.25571636652964
 20
10.33300443050881
 30
0.0
 10
17.25571636652964
 20
10.4102604460962
 30
0.0
 10
17.25571636652964
 20
10.48762851751331
 30
0.0
 10
17.25571636652964
 20
10.56513418104943
 30
0.0
 10
17.25571636652964
 20
10.64281069852005
 30
0.0
 10
17.25571636652964
 20
10.69465083938791
 30
0.0
 10
17.25571636652964
 20
10.72060288335518
 30
0.0
  0
LINE
  5
19B
330
1F
100
AcDbEntity
  8
0
100
AcDbLine
 10
17.25571636652964
 20
13.4765084068994
 30
0.0
 11
17.11792108668581
 21
13.4765084068994
 31
0.0
  0
SPLINE
  5
19C
330
1F
100
AcDbEntity
  8
0
100
AcDbSpline
210
0.0
220
0.0
230
1.0
 70
    24
 71
     3
 72
    43
 73
    39
 74
     0
 42
0.0000000001
 43
0.0000000001
 40
0.0
 40
0.0
 40
0.0
 40
0.0
 40
0.0179553750554269
 40
0.035862494603194
 40
0.0537306296149471
 40
0.0715572435914592
 40
0.0893684896480904
 40
0.1071571365579372
 40
0.1249232640363542
 40
0.1426880948313683
 40
0.1650391601453507
 40
0.1874090765286887
 40
0.2098024344009418
 40
0.2323534801268752
 40
0.2547885598621069
 40
0.2803905888706876
 40
0.305648482212227
 40
0.3305642825703168
 40
0.3552060348963676
 40
0.3796422389387172
 40
0.4199870249831187
 40
0.460063530374442
 40
0.500009415075057
 40
0.539959036828326
 40
0.5800354975597037
 40
0.6203765617130929
 40
0.6509388776795692
 40
0.6818586437241077
 40
0.7132552868702212
 40
0.7452133201135889
 40
0.8877676829203226
 40
0.9037355102019551
 40
0.9197193550306113
 40
0.9357192635565303
 40
0.951737957484341
 40
0.967790758827371
 40
0.9838754889844846
 40
1.0
 40
1.0
 40
1.0
 40
1.0
 10
17.25571636652964
 20
10.72060288335518
 30
0.0
 10
17.25571636652964
 20
10.7495017075397
 30
0.0
 10
17.25571636652964
 20
10.80722168961507
 30
0.0
 10
17.25571636652964
 20
10.89369968680804
 30
0.0
 10
17.25571636652964
 20
10.97996963902616
 30
0.0
 10
17.25571636652964
 20
11.06608406640022
 30
0.0
 10
17.25571636652964
 20
11.15206891703134
 30
0.0
 10
17.25571636652964
 20
11.23795436680837
 30
0.0
 10
17.25571636652964
 20
11.32376262703832
 30
0.0
 10
17.25571636652964
 20
11.4169101366877
 30
0.0
 10
17.25571636652964
 20
11.51746187003205
 30
0.0
 10
17.25571636652964
 20
11.62545616921102
 30
0.0
 10
17.25571636652964
 20
11.73376359727345
 30
0.0
 10
17.25571636652964
 20
11.84217467362366
 30
0.0
 10
17.25571636652964
 20
11.95571411936159
 30
0.0
 10
17.25571636652964
 20
12.07369798980874
 30
0.0
 10
17.25571636652964
 20
12.19498085644533
 30
0.0
 10
17.25571636652964
 20
12.3131850700779
 30
0.0
 10
17.25571636652964
 20
12.42783989183143
 30
0.0
 10
17.25571636652964
 20
12.56278921100308
 30
0.0
 10
17.25571636652964
 20
12.71427208694716
 30
0.0
 10
17.25571636652964
 20
12.87539539351691
 30
0.0
 10
17.25571636652964
 20
13.02079609595389
 30
0.0
 10
17.25571636652964
 20
13.14865759884839
 30
0.0
 10
17.25571636652964
 20
13.25717284704781
 30
0.0
 10
17.25571636652964
 20
13.33713075369644
 30
0.0
 10
17.25571636652964
 20
13.39306742525907
 30
0.0
 10
17.25571636652964
 20
13.42964309290668
 30
0.0
 10
17.25571636652964
 20
13.45230167764776
 30
0.0
 10
17.25571636652964
 20
13.46324361205452
 30
0.0
 10
17.25571636652964
 20
13.47025372435846
 30
0.0
 10
17.25571636652964
 20
13.47382496646172
 30
0.0
 10
17.25571636652964
 20
13.47465525903023
 30
0.0
 10
17.25571636652964
 20
13.47533231792457
 30
0.0
 10
17.25571636652964
 20
13.47585928257484
 30
0.0
 10
17.25571636652964
 20
13.47623220640276
 30
0.0
 10
17.25571636652964
 20
13.47646549613629
 30
0.0
 10
17.25571636652964
 20
13.4764940915392
 30
0.0
 10
17.25571636652964
 20
13.4765084068994
 30
0.0
  0
SPLINE
  5
19D
330
1F
100
AcDbEntity
  8
0
100
AcDbSpline
210
0.0
220
0.0
230
1.0
 70
    24
 71
     3
 72
    19
 73
    15
 74
     0
 42
0.0000000001
 43
0.0000000001
 40
0.0
 40
0.0
 40
0.0
 40
0.0
 40
0.186950707211071
 40
0.3613528737491551
 40
0.5202000937085019
 40
0.6605187188784529
 40
0.749534326396573
 40
0.8261053434926633
 40
0.8893137869373241
 40
0.927582251859744
 40
0.9580162236196771
 40
0.9742732746075862
 40
0.9878970231849059
 40
1.0
 40
1.0
 40
1.0
 40
1.0
 10
16.90191891029472
 20
10.72060288335518
 30
0.0
 10
16.90350478752157
 20
10.72060288335518
 30
0.0
 10
16.90657009442459
 20
10.72060288335518
 30
0.0
 10
16.91969303567795
 20
10.72060288335518
 30
0.0
 10
16.93821497712234
 20
10.72060288335518
 30
0.0
 10
16.96022031524345
 20
10.72060288335518
 30
0.0
 10
16.98365030645527
 20
10.72060288335518
 30
0.0
 10
17.0061148027098
 20
10.72060288335518
 30
0.0
 10
17.02886127493855
 20
10.72060288335518
 30
0.0
 10
17.05114797139213
 20
10.72060288335518
 30
0.0
 10
17.06983921099925
 20
10.72060288335518
 30
0.0
 10
17.08720246150489
 20
10.72060288335518
 30
0.0
 10
17.1021119588458
 20
10.72060288335518
 30
0.0
 10
17.11286322218915
 20
10.72060288335518
 30
0.0
 10
17.11792108668581
 20
10.72060288335518
 30
0.0
  0
LWPOLYLINE
  5
19E
330
1F
100
AcDbEntity
  8
0
100
AcDbPolyline
 90
       17
 70
   128
 43
0.0
 10
16.90191947862149
 20
12.27580349087838
 10
16.90192827851983
 20
12.26649378509157
 10
16.90194355001008
 20
12.23709200474344
 10
16.90196129647173
 20
12.18875313649151
 10
16.90195227657594
 20
12.12164745836869
 10
16.90190112716682
 20
12.03665334689459
 10
16.90182526470985
 20
11.93539687661797
 10
16.90179576671728
 20
11.81867223836429
 10
16.90184088452941
 20
11.68782530325258
 10
16.9019137953538
 20
11.54526563011409
 10
16.90195682319008
 20
11.3921647054157
 10
16.90195856483662
 20
11.23010284423482
 10
16.90194147836734
 20
11.06214809446242
 10
16.90192683020322
 20
10.89242335513709
 10
16.90191891029472
 20
10.72060524555982
 10
16.90191891029472
 20
10.72060288335518
 10
16.90191891029472
 20
10.72060288335518
  0
SPLINE
  5
19F
330
1F
100
AcDbEntity
  8
0
100
AcDbSpline
210
0.0
220
0.0
230
1.0
 70
     8
 71
     3
 72
    19
 73
    15
 74
     0
 42
0.0000000001
 43
0.0000000001
 40
0.0
 40
0.0
 40
0.0
 40
0.0
 40
0.012102976815093
 40
0.0257267253924128
 40
0.0419837763803218
 40
0.072417748140255
 40
0.1106862130626749
 40
0.1738946565073357
 40
0.2504656736034263
 40
0.3394812811215465
 40
0.4797999062914977
 40
0.6386471262508446
 40
0.8130492927889287
 40
1.0
 40
1.0
 40
1.0
 40
1.0
 10
17.11792108668581
 20
13.4765084068994
 30
0.0
 10
17.11286322218915
 20
13.47586811890076
 30
0.0
 10
17.1021119588458
 20
13.47450708898516
 30
0.0
 10
17.08720246150489
 20
13.46446596074912
 30
0.0
 10
17.06983921099925
 20
13.44630432952981
 30
0.0
 10
17.05114797139213
 20
13.41592067415655
 30
0.0
 10
17.02886127493855
 20
13.3657029766567
 30
0.0
 10
17.0061148027098
 20
13.29500849119034
 30
0.0
 10
16.98365030645527
 20
13.20242530963039
 30
0.0
 10
16.96022031524345
 20
13.07721836674487
 30
0.0
 10
16.93821497712234
 20
12.91708113940144
 30
0.0
 10
16.91969303567795
 20
12.72079748706271
 30
0.0
 10
16.90657009442459
 20
12.50460985310122
 30
0.0
 10
16.90350478752157
 20
12.35421987116743
 30
0.0
 10
16.90191891029472
 20
12.27641361716349
 30
0.0
  0
SPLINE
  5
1A0
330
1F
100
AcDbEntity
  8
0
100
AcDbSpline
210
0.0
220
0.0
230
1.0
 70
     8
 71
     3
 72
    19
 73
    15
 74
     0
 42
0.0000000001
 43
0.0000000001
 40
0.0
 40
0.0
 40
0.0
 40
0.0
 40
0.0121029768151079
 40
0.0257267253924275
 40
0.0419837763803362
 40
0.0724177481402691
 40
0.1106862130626883
 40
0.1738946565073482
 40
0.2504656736034376
 40
0.3394812811215565
 40
0.4797999062915056
 40
0.63864712625085
 40
0.8130492927889315
 40
1.0
 40
1.0
 40
1.0
 40
1.0
 10
17.11792108668583
 20
7.964697359810958
 30
0.0
 10
17.11286322218916
 20
7.965337647809601
 30
0.0
 10
17.10211195884581
 20
7.966698677725196
 30
0.0
 10
17.08720246150489
 20
7.976739805961233
 30
0.0
 10
17.06983921099925
 20
7.994901437180542
 30
0.0
 10
17.05114797139213
 20
8.02528509255381
 30
0.0
 10
17.02886127493855
 20
8.07550279005366
 30
0.0
 10
17.0061148027098
 20
8.146197275520021
 30
0.0
 10
16.98365030645527
 20
8.238780457079968
 30
0.0
 10
16.96022031524345
 20
8.363987399965484
 30
0.0
 10
16.93821497712234
 20
8.524124627308919
 30
0.0
 10
16.91969303567795
 20
8.720408279647649
 30
0.0
 10
16.90657009442459
 20
8.93659591360914
 30
0.0
 10
16.90350478752157
 20
9.086985895542929
 30
0.0
 10
16.90191891029472
 20
9.164792149546872
 30
0.0
  0
SPLINE
  5
1A1
330
1F
100
AcDbEntity
  8
0
100
AcDbSpline
210
0.0
220
0.0
230
1.0
 70
     8
 71
     3
 72
    22
 73
    18
 74
     0
 42
0.0000000001
 43
0.0000000001
 40
0.0
 40
0.0
 40
0.0
 40
0.0
 40
0.0000009711737074
 40
0.0718160150951934
 40
0.1438597548959046
 40
0.2156743438404328
 40
0.2874817279476592
 40
0.3595195984143689
 40
0.431328329152228
 40
0.5031447344512534
 40
0.5751874975458494
 40
0.6470015851790543
 40
0.718810730788757
 40
0.7908504829708051
 40
0.8626610660963084
 40
0.933409301890401
 40
0.9999999999999998
 40
0.9999999999999998
 40
0.9999999999999998
 40
0.9999999999999998
 10
16.90191891029472
 20
10.72060288335518
 30
0.0
 10
16.90191891029472
 20
10.72060209595363
 30
0.0
 10
16.90191891027127
 20
10.66237560083412
 30
0.0
 10
16.90192868206098
 20
10.545637404276
 30
0.0
 10
16.90194176966477
 20
10.3729243574882
 30
0.0
 10
16.90196651166853
 20
10.20449286381532
 30
0.0
 10
16.90195992704215
 20
10.04276022015336
 30
0.0
 10
16.90190992136412
 20
9.889551386471914
 30
0.0
 10
16.90182333185326
 20
9.746708287839483
 30
0.0
 10
16.90178808885944
 20
9.616428414662639
 30
0.0
 10
16.90183542536282
 20
9.499887414170018
 30
0.0
 10
16.90191947688573
 20
9.398511505619994
 30
0.0
 10
16.90196719057263
 20
9.314299151472754
 30
0.0
 10
16.90196221413115
 20
9.247583740490592
 30
0.0
 10
16.90194049380229
 20
9.199973137918156
 30
0.0
 10
16.90192563939387
 20
9.170798638394064
 30
0.0
 10
16.90192141626547
 20
9.167131005868316
 30
0.0
 10
16.90191936862276
 20
9.16535270307131
 30
0.0
  0
ELLIPSE
  5
1A4
330
1F
100
AcDbEntity
  8
0
100
AcDbEllipse
 10
8.420975841322588
 20
19.56611826082929
 30
0.0
 11
1.291338582677166
 21
0.0000000000000036
 31
0.0
210
0.0
220
0.0
230
1.0
 40
0.1676829268292685
 41
4.712388980384691
 42
6.283185307179586
  0
ELLIPSE
  5
1A6
330
1F
100
AcDbEntity
  8
0
100
AcDbEllipse
 10
6.956408912188729
 20
17.55824424508125
 30
0.0
 11
0.0
 21
0.4724409448818907
 31
0.0000000000000016
210
0.0
220
-0.0000000000000035
230
1.0
 40
0.416666666666667
 41
0.0
 42
6.283185307179586
  0
LINE
  5
1A8
330
1F
100
AcDbEntity
  8
0
100
AcDbLine
 10
4.200503388644508
 20
19.5661182608293
 30
0.0
 11
9.712314423999755
 21
19.5661182608293
 31
0.0
  0
LINE
  5
1A9
330
1F
100
AcDbEntity
  8
0
100
AcDbLine
 10
8.420975841322588
 20
19.34958282775843
 30
0.0
 11
6.956408912188729
 21
19.34958282775843
 31
0.0
  0
SPLINE
  5
1DE
330
1F
100
AcDbEntity
  8
0
100
AcDbSpline
210
0.0
220
0.0
230
1.0
 70
     8
 71
     3
 72
    21
 73
    17
 74
     0
 42
0.0000000001
 43
0.0000000001
 40
0.0
 40
0.0
 40
0.0
 40
0.0
 40
0.0124386308843919
 40
0.0701450793191564
 40
0.0932582052297958
 40
0.1131754974004539
 40
0.1309995246465852
 40
0.1481917874800434
 40
0.166270390640195
 40
0.1864285958627916
 40
0.2354691767680485
 40
0.2975530991806758
 40
0.4568961644477117
 40
0.6508307243212841
 40
0.8681924935852737
 40
1.0
 40
1.0
 40
1.0
 40
1.0
 10
7.081279497173076
 20
17.19384841215968
 30
0.0
 10
7.081236512441404
 20
17.19379663791484
 30
0.0
 10
7.080994108961418
 20
17.19350466779816
 30
0.0
 10
7.08137483539234
 20
17.19472275663029
 30
0.0
 10
7.082878735831872
 20
17.19833296740349
 30
0.0
 10
7.084426738601151
 20
17.20191016136458
 30
0.0
 10
7.086452797697484
 20
17.20655117045749
 30
0.0
 10
7.088917678802811
 20
17.21224134465862
 30
0.0
 10
7.091717746375493
 20
17.21883052319718
 30
0.0
 10
7.096088322553569
 20
17.22939892599265
 30
0.0
 10
7.102146997454905
 20
17.24488361830662
 30
0.0
 10
7.112973565534502
 20
17.27520918042846
 30
0.0
 10
7.126536010254416
 20
17.32076555489734
 30
0.0
 10
7.140498685354661
 20
17.38699170084275
 30
0.0
 10
7.149872794674613
 20
17.45494345787953
 30
0.0
 10
7.151123299202414
 20
17.50047075721208
 30
0.0
 10
7.151595350711669
 20
17.51765680483083
 30
0.0
  0
SPLINE
  5
1DF
330
1F
100
AcDbEntity
  8
0
100
AcDbSpline
210
0.0
220
0.0
230
1.0
 70
     8
 71
     3
 72
    21
 73
    17
 74
     0
 42
0.0000000001
 43
0.0000000001
 40
0.0
 40
0.0
 40
0.0
 40
0.0
 40
0.0124164634768004
 40
0.07012633939036
 40
0.0932410323927653
 40
0.1131595314025462
 40
0.1309838737554308
 40
0.1481751619716914
 40
0.1662515799814492
 40
0.1864070529921572
 40
0.2354404203595816
 40
0.2975161736752074
 40
0.4568430240268234
 40
0.6507613899102357
 40
0.8681050665460848
 40
1.0
 40
1.0
 40
1.0
 40
1.0
 10
6.83153864803401
 20
17.92264073975519
 30
0.0
 10
6.83158155652574
 20
17.92269241504446
 30
0.0
 10
6.831823897306545
 20
17.92298426939416
 30
0.0
 10
6.831443622809699
 20
17.92176741617763
 30
0.0
 10
6.829940557947953
 20
17.91815915560686
 30
0.0
 10
6.828393220898975
 20
17.91458345081917
 30
0.0
 10
6.826367948390823
 20
17.90994444249783
 30
0.0
 10
6.82390381552906
 20
17.90425621260786
 30
0.0
 10
6.821104494779175
 20
17.89766919867829
 30
0.0
 10
6.816735052087355
 20
17.88710417272656
 30
0.0
 10
6.810677656217114
 20
17.8716242501556
 30
0.0
 10
6.799853018417842
 20
17.84130778748219
 30
0.0
 10
6.786292435930754
 20
17.79576496739228
 30
0.0
 10
6.772329640243095
 20
17.72955920548038
 30
0.0
 10
6.762952201317562
 20
17.66161552835487
 30
0.0
 10
6.761697768181916
 20
17.61608762182579
 30
0.0
 10
6.761224013648
 20
17.59889335971255
 30
0.0
  0
LINE
  5
1E0
330
1F
100
AcDbEntity
  8
0
100
AcDbLine
 10
8.019401065745997
 20
16.84958289581097
 30
0.0
 11
8.019401065745997
 21
18.71966153916957
 31
0.0
  0
LINE
  5
1E1
330
1F
100
AcDbEntity
  8
0
100
AcDbLine
 10
5.893416758631462
 20
18.71966153916957
 30
0.0
 11
5.893416758631462
 21
16.84958289581097
 31
0.0
  0
ARC
  5
1E2
330
1F
100
AcDbEntity
  8
0
100
AcDbCircle
 10
7.999715998802901
 20
18.71966156791589
 30
0.0
 40
0.0196850393700814
100
AcDbArc
 50
0.0
 51
89.99999999999225
  0
ARC
  5
1E3
330
1F
100
AcDbEntity
  8
0
100
AcDbCircle
 10
5.913101825574556
 20
18.71966156791589
 30
0.0
 40
0.0196850393700814
100
AcDbArc
 50
90.00000000000259
 51
180.0
  0
ELLIPSE
  5
1E4
330
1F
100
AcDbEntity
  8
0
100
AcDbEllipse
 10
6.956408912188729
 20
16.84958282775841
 30
0.0
 11
-1.062992125984251
 21
0.0
 31
0.0000000000000001
210
0.0000000000000001
220
0.0
230
1.0
 40
0.2222222222222218
 41
1.570796326794896
 42
3.141592653589792
  0
ELLIPSE
  5
1E5
330
1F
100
AcDbEntity
  8
0
100
AcDbEllipse
 10
6.956408912188729
 20
16.84958282775841
 30
0.0
 11
1.062992125984251
 21
0.0
 31
0.0
210
0.0
220
0.0
230
1.0
 40
0.2222222222222202
 41
3.141592653589792
 42
4.712388980384693
  0
ARC
  5
1E8
330
1F
100
AcDbEntity
  8
0
100
AcDbCircle
 10
5.69656639250369
 20
19.15273243405763
 30
0.0
 40
0.1968503937007888
100
AcDbArc
 50
0.0
 51
90.0
  0
ARC
  5
1E9
330
1F
100
AcDbEntity
  8
0
100
AcDbCircle
 10
8.21625143187377
 20
19.15273243405763
 30
0.0
 40
0.1968503937007888
100
AcDbArc
 50
90.00000000000049
 51
180.0
  0
ARC
  5
1EA
330
1F
100
AcDbEntity
  8
0
100
AcDbCircle
 10
5.913101825574556
 20
18.85745684350645
 30
0.0
 40
0.0196850393700787
100
AcDbArc
 50
179.9999999999998
 51
270.0000000000008
  0
ARC
  5
1EB
330
1F
100
AcDbEntity
  8
0
100
AcDbCircle
 10
7.999715998802904
 20
18.85745684350645
 30
0.0
 40
0.0196850393700778
100
AcDbArc
 50
270.0000000000008
 51
0.0000000000002036
  0
LINE
  5
1EC
330
1F
100
AcDbEntity
  8
0
100
AcDbLine
 10
5.893416758631462
 20
19.1527324396309
 30
0.0
 11
5.893416758631462
 21
18.85745687401276
 31
0.0
  0
LINE
  5
1ED
330
1F
100
AcDbEntity
  8
0
100
AcDbLine
 10
8.019401065745997
 20
18.85745687401276
 30
0.0
 11
8.019401065745997
 21
19.1527324396309
 31
0.0
  0
ARC
  5
1EE
330
1F
100
AcDbEntity
  8
0
100
AcDbCircle
 10
7.842235683842273
 20
18.79840172539622
 30
0.0
 40
0.0393700787401574
100
AcDbArc
 50
90.0
 51
179.9999999999999
  0
ARC
  5
1EF
330
1F
100
AcDbEntity
  8
0
100
AcDbCircle
 10
6.070582140535186
 20
18.79840172539622
 30
0.0
 40
0.0393700787401574
100
AcDbArc
 50
0.0000000000000509
 51
90.0
  0
LINE
  5
1F0
330
1F
100
AcDbEntity
  8
0
100
AcDbLine
 10
6.109952190529009
 20
18.7984017095564
 30
0.0
 11
6.109952190529009
 21
18.73934661843252
 31
0.0
  0
LINE
  5
1F1
330
1F
100
AcDbEntity
  8
0
100
AcDbLine
 10
7.80286563384845
 20
18.73934661843252
 30
0.0
 11
7.80286563384845
 21
18.7984017095564
 31
0.0
  0
LINE
  5
1F2
330
1F
100
AcDbEntity
  8
0
100
AcDbLine
 10
4.279243412366368
 20
19.76296865013013
 30
0.0
 11
4.279243412366368
 21
19.70391354067312
 31
0.0
  0
LINE
  5
1F3
330
1F
100
AcDbEntity
  8
0
100
AcDbLine
 10
9.633574412011091
 20
19.70391354067312
 30
0.0
 11
9.633574412011091
 21
19.76296865013013
 31
0.0
  0
SPLINE
  5
20B
330
1F
100
AcDbEntity
  8
0
100
AcDbSpline
210
0.0
220
0.0
230
1.0
 70
     8
 71
     3
 72
    16
 73
    12
 74
     0
 42
0.0000000001
 43
0.0000000001
 40
0.0
 40
0.0
 40
0.0
 40
0.0
 40
0.0354818045899112
 40
0.0725257485514337
 40
0.1559462090137863
 40
0.2570420418123103
 40
0.3773815950596989
 40
0.5155621860997889
 40
0.6683861728892265
 40
0.8315316734661845
 40
0.9999999999999998
 40
0.9999999999999998
 40
0.9999999999999998
 40
0.9999999999999998
 10
6.956408912188729
 20
18.03068515828351
 30
0.0
 10
6.962898640087778
 20
18.03022978902569
 30
0.0
 10
6.976163815836686
 20
18.02929900219925
 30
0.0
 10
7.003119440757725
 20
18.01913309969195
 30
0.0
 10
7.035763583203282
 20
17.99401221734361
 30
0.0
 10
7.069209877326329
 20
17.94899132613991
 30
0.0
 10
7.098336555725826
 20
17.8898944527815
 30
0.0
 10
7.122192075274591
 20
17.8185085456325
 30
0.0
 10
7.139817119482128
 20
17.7374001923969
 30
0.0
 10
7.151135720935021
 20
17.64954540782435
 30
0.0
 10
7.152543906909543
 20
17.58900192446787
 30
0.0
 10
7.153259301489567
 20
17.55824428262749
 30
0.0
  0
SPLINE
  5
20C
330
1F
100
AcDbEntity
  8
0
100
AcDbSpline
210
0.0
220
0.0
230
1.0
 70
     8
 71
     3
 72
    12
 73
     8
 74
     0
 42
0.0000000001
 43
0.0000000001
 40
0.0
 40
0.0
 40
0.0
 40
0.0
 40
0.2030614555608602
 40
0.5165016499887784
 40
0.7751396232000315
 40
0.8899914070345243
 40
1.0
 40
1.0
 40
1.0
 40
1.0
 10
7.082008174588666
 20
17.19740093112067
 30
0.0
 10
7.076899564526069
 20
17.18657526988964
 30
0.0
 10
7.063905441543975
 20
17.15903940951375
 30
0.0
 10
7.035576524912137
 20
17.1225703071561
 30
0.0
 10
7.003137897690776
 20
17.09734614426588
 30
0.0
 10
6.976160922465793
 20
17.08719104951781
 30
0.0
 10
6.962897691547239
 20
17.08625916620478
 30
0.0
 10
6.956408912188729
 20
17.08580326030649
 30
0.0
  0
SPLINE
  5
20E
330
1F
100
AcDbEntity
  8
0
100
AcDbSpline
210
0.0
220
0.0
230
1.0
 70
     8
 71
     3
 72
    16
 73
    12
 74
     0
 42
0.0000000001
 43
0.0000000001
 40
0.0
 40
0.0
 40
0.0
 40
0.0
 40
0.0354818322691147
 40
0.0725257723829841
 40
0.155946066530238
 40
0.257042100079003
 40
0.3773814019934668
 40
0.5155622321257168
 40
0.6683859415946704
 40
0.8315316909645291
 40
1.0
 40
1.0
 40
1.0
 40
1.0
 10
6.956408912188729
 20
17.08580326030649
 30
0.0
 10
6.949919185060683
 20
17.08625868963292
 30
0.0
 10
6.936654016876963
 20
17.08718959882087
 30
0.0
 10
6.909698419514046
 20
17.09735544311002
 30
0.0
 10
6.877054134926082
 20
17.12247619424168
 30
0.0
 10
6.843608056007499
 20
17.16749721791677
 30
0.0
 10
6.814481176413075
 20
17.22659401703984
 30
0.0
 10
6.790625817964032
 20
17.29797994651297
 30
0.0
 10
6.773000659834804
 20
17.37908831284791
 30
0.0
 10
6.761682118887058
 20
17.46694311189633
 30
0.0
 10
6.760273922290764
 20
17.52748664179173
 30
0.0
 10
6.759558522887891
 20
17.55824428262749
 30
0.0
  0
SPLINE
  5
20F
330
1F
100
AcDbEntity
  8
0
100
AcDbSpline
210
0.0
220
0.0
230
1.0
 70
     8
 71
     3
 72
    12
 73
     8
 74
     0
 42
0.0000000001
 43
0.0000000001
 40
0.0
 40
0.0
 40
0.0
 40
0.0
 40
0.2030620617219156
 40
0.5165014663847183
 40
0.7751398171476628
 40
0.8899915515886037
 40
1.0
 40
1.0
 40
1.0
 40
1.0
 10
6.830809668121915
 20
17.91908748746933
 30
0.0
 10
6.835918258777417
 20
17.92991320656065
 30
0.0
 10
6.848912288988435
 20
17.95744912212226
 30
0.0
 10
6.877241411862939
 20
17.99391810048952
 30
0.0
 10
6.909679890185744
 20
18.01914239892486
 30
0.0
 10
6.936656893663677
 20
18.0292975514449
 30
0.0
 10
6.949920132087906
 20
18.03022931243511
 30
0.0
 10
6.956408912188729
 20
18.03068515828351
 30
0.0
  0
LINE
  5
210
330
1F
100
AcDbEntity
  8
0
100
AcDbLine
 10
5.913101837894414
 20
18.73934661843252
 30
0.0
 11
7.999715986483045
 21
18.73934661843252
 31
0.0
  0
LINE
  5
211
330
1F
100
AcDbEntity
  8
0
100
AcDbLine
 10
6.785813166258678
 20
17.77871664237864
 30
0.0
 11
6.778712619951461
 21
17.7519901777917
 31
0.0
  0
LINE
  5
212
330
1F
100
AcDbEntity
  8
0
100
AcDbLine
 10
7.086031579776612
 20
17.91257497603575
 30
0.0
 11
7.087633812100821
 21
17.91622825383277
 31
0.0
  0
LINE
  5
213
330
1F
100
AcDbEntity
  8
0
100
AcDbLine
 10
6.785813166258678
 20
17.78881496572195
 30
0.0
 11
6.785813166258678
 21
17.77871664237864
 31
0.0
  0
LINE
  5
21C
330
1F
100
AcDbEntity
  8
0
100
AcDbLine
 10
5.519401059292738
 20
19.34958282893174
 30
0.0
 11
8.393416765084721
 21
19.34958282893174
 31
0.0
  0
LINE
  5
21D
330
1F
100
AcDbEntity
  8
0
100
AcDbLine
 10
5.913101837894414
 20
18.83777179474981
 30
0.0
 11
7.999715986483045
 21
18.83777179474981
 31
0.0
  0
LINE
  5
21E
330
1F
100
AcDbEntity
  8
0
100
AcDbLine
 10
8.165592676928028
 20
19.76296865013013
 30
0.0
 11
5.74722514744943
 21
19.76296865013013
 31
0.0
  0
LINE
  5
21F
330
1F
100
AcDbEntity
  8
0
100
AcDbLine
 10
9.615000759908838
 20
19.76296865013013
 30
0.0
 11
8.165592676928028
 21
19.76296865013013
 31
0.0
  0
LINE
  5
220
330
1F
100
AcDbEntity
  8
0
100
AcDbLine
 10
5.74722514744943
 20
19.76296865013013
 30
0.0
 11
4.29781706446862
 21
19.76296865013013
 31
0.0
  0
LINE
  5
221
330
1F
100
AcDbEntity
  8
0
100
AcDbLine
 10
4.279243412366368
 20
19.76296865013013
 30
0.0
 11
4.29781706446862
 21
19.76296865013013
 31
0.0
  0
LINE
  5
222
330
1F
100
AcDbEntity
  8
0
100
AcDbLine
 10
9.615000759908838
 20
19.76296865013013
 30
0.0
 11
9.633574412011091
 21
19.76296865013013
 31
0.0
  0
LINE
  5
279
330
1F
100
AcDbEntity
  8
0
100
AcDbLine
 10
6.956408912188729
 20
19.70391354067312
 30
0.0
 11
6.956408912188729
 21
19.56611826082929
 31
0.0
  0
LINE
  5
27A
330
1F
100
AcDbEntity
  8
0
100
AcDbLine
 10
9.712314435732951
 20
19.70391354067312
 30
0.0
 11
9.712314435732951
 21
19.56611826082929
 31
0.0
  0
SPLINE
  5
27B
330
1F
100
AcDbEntity
  8
0
100
AcDbSpline
210
0.0
220
0.0
230
1.0
 70
    24
 71
     3
 72
    43
 73
    39
 74
     0
 42
0.0000000001
 43
0.0000000001
 40
0.0
 40
0.0
 40
0.0
 40
0.0
 40
0.0179553750554269
 40
0.035862494603194
 40
0.0537306296149471
 40
0.0715572435914592
 40
0.0893684896480904
 40
0.1071571365579372
 40
0.1249232640363542
 40
0.1426880948313683
 40
0.1650391601453507
 40
0.1874090765286887
 40
0.2098024344009418
 40
0.2323534801268752
 40
0.2547885598621069
 40
0.2803905888706876
 40
0.305648482212227
 40
0.3305642825703168
 40
0.3552060348963676
 40
0.3796422389387172
 40
0.4199870249831187
 40
0.460063530374442
 40
0.500009415075057
 40
0.539959036828326
 40
0.5800354975597037
 40
0.6203765617130929
 40
0.6509388776795692
 40
0.6818586437241077
 40
0.7132552868702212
 40
0.7452133201135889
 40
0.8877676829203226
 40
0.9037355102019551
 40
0.9197193550306113
 40
0.9357192635565303
 40
0.951737957484341
 40
0.967790758827371
 40
0.9838754889844846
 40
1.0
 40
1.0
 40
1.0
 40
1.0
 10
9.712314435732951
 20
19.70391354067312
 30
0.0
 10
9.712296581571473
 20
19.70391354067312
 30
0.0
 10
9.71226092123201
 20
19.70391354067312
 30
0.0
 10
9.711971866875568
 20
19.70391354067312
 30
0.0
 10
9.711509101743395
 20
19.70391354067312
 30
0.0
 10
9.710855393322299
 20
19.70391354067312
 30
0.0
 10
9.710014090015766
 20
19.70391354067312
 30
0.0
 10
9.708984710360574
 20
19.70391354067312
 30
0.0
 10
9.707766342917155
 20
19.70391354067312
 30
0.0
 10
9.706237577477011
 20
19.70391354067312
 30
0.0
 10
9.704335246851355
 20
19.70391354067312
 30
0.0
 10
9.701996176607986
 20
19.70391354067312
 30
0.0
 10
9.699334865531286
 20
19.70391354067312
 30
0.0
 10
9.696429697586733
 20
19.70391354067312
 30
0.0
 10
9.692853527874657
 20
19.70391354067312
 30
0.0
 10
9.689585052229746
 20
19.70391354067312
 30
0.0
 10
9.675203658919759
 20
19.70391354067312
 30
0.0
 10
9.651644337737931
 20
19.70391354067312
 30
0.0
 10
9.618939735584788
 20
19.70391354067312
 30
0.0
 10
9.568533907826283
 20
19.70391354067312
 30
0.0
 10
9.492969431329539
 20
19.70391354067312
 30
0.0
 10
9.384456867267241
 20
19.70391354067312
 30
0.0
 10
9.256593115436682
 20
19.70391354067312
 30
0.0
 10
9.111193253281422
 20
19.70391354067312
 30
0.0
 10
8.950064031143446
 20
19.70391354067312
 30
0.0
 10
8.789750670546897
 20
19.70391354067312
 30
0.0
 10
8.635425707909249
 20
19.70391354067312
 30
0.0
 10
8.490255563639886
 20
19.70391354067312
 30
0.0
 10
8.33987094564447
 20
19.70391354067312
 30
0.0
 10
8.008384141023213
 20
19.70391354067312
 30
0.0
 10
7.702027505529979
 20
19.70391354067312
 30
0.0
 10
7.421179917779535
 20
19.70391354067312
 30
0.0
 10
7.344007670468293
 20
19.70391354067312
 30
0.0
 10
7.266751483911141
 20
19.70391354067312
 30
0.0
 10
7.189383290244678
 20
19.70391354067312
 30
0.0
 10
7.111877654217416
 20
19.70391354067312
 30
0.0
 10
7.03420113674581
 20
19.70391354067312
 30
0.0
 10
6.98236099587777
 20
19.70391354067312
 30
0.0
 10
6.956408912188729
 20
19.70391354067312
 30
0.0
  0
LINE
  5
27C
330
1F
100
AcDbEntity
  8
0
100
AcDbLine
 10
4.200503388644508
 20
19.70391354067312
 30
0.0
 11
4.200503388644508
 21
19.56611826082929
 31
0.0
  0
SPLINE
  5
27D
330
1F
100
AcDbEntity
  8
0
100
AcDbSpline
210
0.0
220
0.0
230
1.0
 70
    24
 71
     3
 72
    43
 73
    39
 74
     0
 42
0.0000000001
 43
0.0000000001
 40
0.0
 40
0.0
 40
0.0
 40
0.0
 40
0.0179558469578578
 40
0.0358624929840504
 40
0.0537306271879908
 40
0.0715572859200959
 40
0.0893685919190302
 40
0.1071572228381359
 40
0.12492327358294
 40
0.1426821640238426
 40
0.1650312998452642
 40
0.1874073370209052
 40
0.2097791553716556
 40
0.2324517261259072
 40
0.2547884956441242
 40
0.2803941650704187
 40
0.3056551859339258
 40
0.3305637353255835
 40
0.3552062501305129
 40
0.3796423179904603
 40
0.4199871293234999
 40
0.4600635737775801
 40
0.5000094566722543
 40
0.5399590766194136
 40
0.5800355946639085
 40
0.6203766298811942
 40
0.6509389080382788
 40
0.6818587156985564
 40
0.713255299373966
 40
0.7452132736604521
 40
0.8877677715235599
 40
0.903735620862866
 40
0.9197194345954272
 40
0.935719274056365
 40
0.9517379596663449
 40
0.9677907602836327
 40
0.9838755143933285
 40
0.9999999999999998
 40
0.9999999999999998
 40
0.9999999999999998
 40
0.9999999999999998
 10
6.956408912188729
 20
19.70391354067312
 30
0.0
 10
6.927509327175667
 20
19.70391354067312
 30
0.0
 10
6.869789345088196
 20
19.70391354067312
 30
0.0
 10
6.783311347929637
 20
19.70391354067312
 30
0.0
 10
6.697042083196106
 20
19.70391354067312
 30
0.0
 10
6.610927484683653
 20
19.70391354067312
 30
0.0
 10
6.524942487485109
 20
19.70391354067312
 30
0.0
 10
6.43905708611053
 20
19.70391354067312
 30
0.0
 10
6.353258533008348
 20
19.70391354067312
 30
0.0
 10
6.260123799705155
 20
19.70391354067312
 30
0.0
 10
6.159574896887969
 20
19.70391354067312
 30
0.0
 10
6.051608453809299
 20
19.70391354067312
 30
0.0
 10
5.943130482098875
 20
19.70391354067312
 30
0.0
 10
5.834716132004173
 20
19.70391354067312
 30
0.0
 10
5.721134008827553
 20
19.70391354067312
 30
0.0
 10
5.603297410710533
 20
19.70391354067312
 30
0.0
 10
5.482014622552363
 20
19.70391354067312
 30
0.0
 10
5.363817572323132
 20
19.70391354067312
 30
0.0
 10
5.249172431515607
 20
19.70391354067312
 30
0.0
 10
5.114222206759452
 20
19.70391354067312
 30
0.0
 10
4.962739748381019
 20
19.70391354067312
 30
0.0
 10
4.80161629406318
 20
19.70391354067312
 30
0.0
 10
4.656215680410289
 20
19.70391354067312
 30
0.0
 10
4.528354246845448
 20
19.70391354067312
 30
0.0
 10
4.419838435015944
 20
19.70391354067312
 30
0.0
 10
4.339881635975408
 20
19.70391354067312
 30
0.0
 10
4.283942959141506
 20
19.70391354067312
 30
0.0
 10
4.247372032053346
 20
19.70391354067312
 30
0.0
 10
4.224708961501325
 20
19.70391354067312
 30
0.0
 10
4.213768327327759
 20
19.70391354067312
 30
0.0
 10
4.206758062157311
 20
19.70391354067312
 30
0.0
 10
4.203186831133633
 20
19.70391354067312
 30
0.0
 10
4.20235653742753
 20
19.70391354067312
 30
0.0
 10
4.20167947614178
 20
19.70391354067312
 30
0.0
 10
4.201152513082665
 20
19.70391354067312
 30
0.0
 10
4.200779588811209
 20
19.70391354067312
 30
0.0
 10
4.200546299707894
 20
19.70391354067312
 30
0.0
 10
4.200517704090282
 20
19.70391354067312
 30
0.0
 10
4.200503388644508
 20
19.70391354067312
 30
0.0
  0
SPLINE
  5
27E
330
1F
100
AcDbEntity
  8
0
100
AcDbSpline
210
0.0
220
0.0
230
1.0
 70
     8
 71
     3
 72
    19
 73
    15
 74
     0
 42
0.0000000001
 43
0.0000000001
 40
0.0
 40
0.0
 40
0.0
 40
0.0
 40
0.186950707211071
 40
0.3613528737491551
 40
0.5202000937085019
 40
0.6605187188784529
 40
0.749534326396573
 40
0.8261053434926633
 40
0.8893137869373241
 40
0.927582251859744
 40
0.9580162236196771
 40
0.9742732746075862
 40
0.9878970231849059
 40
1.0
 40
1.0
 40
1.0
 40
1.0
 10
8.512219645997037
 20
19.35011608443819
 30
0.0
 10
8.590025900000979
 20
19.35170196166504
 30
0.0
 10
8.740415881934767
 20
19.35476726856806
 30
0.0
 10
8.95660351589626
 20
19.36789020982143
 30
0.0
 10
9.152887168234988
 20
19.38641215126582
 30
0.0
 10
9.313024395578427
 20
19.40841748938693
 30
0.0
 10
9.438231338463941
 20
19.43184748059874
 30
0.0
 10
9.530814520023886
 20
19.45431197685328
 30
0.0
 10
9.60150900549025
 20
19.47705844908203
 30
0.0
 10
9.651726702990098
 20
19.49934514553561
 30
0.0
 10
9.682110358363368
 20
19.51803638514273
 30
0.0
 10
9.700271989582676
 20
19.53539963564836
 30
0.0
 10
9.710313117818708
 20
19.55030913298928
 30
0.0
 10
9.711674147734306
 20
19.56106039633263
 30
0.0
 10
9.712314435732951
 20
19.56611826082929
 30
0.0
  0
SPLINE
  5
27F
330
1F
100
AcDbEntity
  8
0
100
AcDbSpline
210
0.0
220
0.0
230
1.0
 70
     8
 71
     3
 72
    22
 73
    18
 74
     0
 42
0.0000000001
 43
0.0000000001
 40
0.0
 40
0.0
 40
0.0
 40
0.0
 40
0.0000009712079576
 40
0.0718185587488384
 40
0.1438648419722048
 40
0.2156819881517381
 40
0.2874915102972535
 40
0.3595316162921524
 40
0.4313424945961375
 40
0.5031615584345874
 40
0.5752067253772039
 40
0.6470229090111825
 40
0.7188347935908836
 40
0.7908772189905983
 40
0.8626903614475029
 40
0.9334411394097251
 40
1.0
 40
1.0
 40
1.0
 40
1.0
 10
6.956408912188729
 20
19.35011608443819
 30
0.0
 10
6.956409699590273
 20
19.35011608443819
 30
0.0
 10
7.014636203584963
 20
19.35011608441723
 30
0.0
 10
7.131374420207789
 20
19.35012571258398
 30
0.0
 10
7.304087407519308
 20
19.3501386754689
 30
0.0
 10
7.472518811843394
 20
19.35016380165537
 30
0.0
 10
7.634250804481704
 20
19.35015690527737
 30
0.0
 10
7.787457975568806
 20
19.35010511734939
 30
0.0
 10
7.930296887195254
 20
19.35001291009182
 30
0.0
 10
8.060576512417657
 20
19.34997791982808
 30
0.0
 10
8.177124589468574
 20
19.35003306962322
 30
0.0
 10
8.278501004356819
 20
19.3501176903893
 30
0.0
 10
8.362709581006818
 20
19.35016193426427
 30
0.0
 10
8.429427302371605
 20
19.35015871269744
 30
0.0
 10
8.477038347203594
 20
19.3501378388022
 30
0.0
 10
8.506209440182834
 20
19.35012279968432
 30
0.0
 10
8.509876831149773
 20
19.35011859786869
 30
0.0
 10
8.511654545858455
 20
19.35011656109935
 30
0.0
  0
SPLINE
  5
280
330
1F
100
AcDbEntity
  8
0
100
AcDbSpline
210
0.0
220
0.0
230
1.0
 70
    24
 71
     3
 72
    19
 73
    15
 74
     0
 42
0.0000000001
 43
0.0000000001
 40
0.0
 40
0.0
 40
0.0
 40
0.0
 40
0.012102976815093
 40
0.0257267253924128
 40
0.0419837763803218
 40
0.072417748140255
 40
0.1106862130626749
 40
0.1738946565073357
 40
0.2504656736034263
 40
0.3394812811215465
 40
0.4797999062914977
 40
0.6386471262508446
 40
0.8130492927889287
 40
1.0
 40
1.0
 40
1.0
 40
1.0
 10
6.956408912188729
 20
19.56611826082929
 30
0.0
 10
6.956408912188729
 20
19.56106039633263
 30
0.0
 10
6.956408912188729
 20
19.55030913298928
 30
0.0
 10
6.956408912188729
 20
19.53539963564836
 30
0.0
 10
6.956408912188729
 20
19.51803638514273
 30
0.0
 10
6.956408912188729
 20
19.49934514553561
 30
0.0
 10
6.956408912188729
 20
19.47705844908203
 30
0.0
 10
6.956408912188729
 20
19.45431197685328
 30
0.0
 10
6.956408912188729
 20
19.43184748059874
 30
0.0
 10
6.956408912188729
 20
19.40841748938693
 30
0.0
 10
6.956408912188729
 20
19.38641215126582
 30
0.0
 10
6.956408912188729
 20
19.36789020982143
 30
0.0
 10
6.956408912188729
 20
19.35476726856806
 30
0.0
 10
6.956408912188729
 20
19.35170196166504
 30
0.0
 10
6.956408912188729
 20
19.35011608443819
 30
0.0
  0
LWPOLYLINE
  5
281
330
1F
100
AcDbEntity
  8
0
100
AcDbPolyline
 90
       17
 70
   128
 43
0.0
 10
5.401208304665525
 20
19.35011667109808
 10
5.41051786378737
 20
19.35012558099515
 10
5.439919497470522
 20
19.35014090748477
 10
5.488258659052402
 20
19.35015847061521
 10
5.555364190510243
 20
19.35014989071433
 10
5.640356395339707
 20
19.35010092294667
 10
5.74160963898693
 20
19.35002905711021
 10
5.858334717235532
 20
19.34999902745711
 10
5.989186345626355
 20
19.35003879199775
 10
6.131747632079542
 20
19.35011060283485
 10
6.284847016795718
 20
19.35015555564888
 10
6.446908951309088
 20
19.35015656397057
 10
6.614863884412702
 20
19.35013865251082
 10
6.784588532072422
 20
19.35012398601358
 10
6.956406549984089
 20
19.35011608443819
 10
6.956408912188729
 20
19.35011608443819
 10
6.956408912188729
 20
19.35011608443819
  0
SPLINE
  5
282
330
1F
100
AcDbEntity
  8
0
100
AcDbSpline
210
0.0
220
0.0
230
1.0
 70
     8
 71
     3
 72
    19
 73
    15
 74
     0
 42
0.0000000001
 43
0.0000000001
 40
0.0
 40
0.0
 40
0.0
 40
0.0
 40
0.186950707211071
 40
0.3613528737491551
 40
0.5202000937085019
 40
0.6605187188784529
 40
0.749534326396573
 40
0.8261053434926633
 40
0.8893137869373241
 40
0.927582251859744
 40
0.9580162236196771
 40
0.9742732746075862
 40
0.9878970231849059
 40
1.0
 40
1.0
 40
1.0
 40
1.0
 10
5.400598178380422
 20
19.35011608443819
 30
0.0
 10
5.322791924376479
 20
19.35170196166504
 30
0.0
 10
5.172401942442692
 20
19.35476726856806
 30
0.0
 10
4.956214308481198
 20
19.36789020982143
 30
0.0
 10
4.75993065614247
 20
19.38641215126582
 30
0.0
 10
4.599793428799033
 20
19.40841748938693
 30
0.0
 10
4.474586485913517
 20
19.43184748059874
 30
0.0
 10
4.382003304353572
 20
19.45431197685328
 30
0.0
 10
4.311308818887209
 20
19.47705844908203
 30
0.0
 10
4.261091121387361
 20
19.49934514553561
 30
0.0
 10
4.230707466014091
 20
19.51803638514273
 30
0.0
 10
4.212545834794783
 20
19.53539963564836
 30
0.0
 10
4.202504706558751
 20
19.55030913298928
 30
0.0
 10
4.201143676643152
 20
19.56106039633263
 30
0.0
 10
4.200503388644508
 20
19.56611826082929
 30
0.0
  0
ELLIPSE
  5
285
330
1F
100
AcDbEntity
  8
0
100
AcDbEllipse
 10
8.420975841322585
 20
1.747391613762122
 30
0.0
 11
1.291338582677166
 21
-0.0000000000000022
 31
0.0
210
0.0
220
-0.0000000000000035
230
1.0
 40
0.1676829268292675
 41
0.0
 42
1.570796326794898
  0
LINE
  5
289
330
1F
100
AcDbEntity
  8
0
100
AcDbLine
 10
4.200503388644505
 20
1.747391613762121
 30
0.0
 11
9.712314423999751
 21
1.747391613762121
 31
0.0
  0
LINE
  5
28A
330
1F
100
AcDbEntity
  8
0
100
AcDbLine
 10
8.420975841322583
 20
1.963927046832989
 30
0.0
 11
6.956408912188726
 21
1.963927046832988
 31
0.0
  0
ARC
  5
2BF
330
1F
100
AcDbEntity
  8
0
100
AcDbCircle
 10
5.913101825574553
 20
2.593848306675525
 30
0.0
 40
0.0196850393700814
100
AcDbArc
 50
180.0
 51
269.9999999999931
  0
ARC
  5
2C0
330
1F
100
AcDbEntity
  8
0
100
AcDbCircle
 10
7.999715998802898
 20
2.593848306675525
 30
0.0
 40
0.0196850393700814
100
AcDbArc
 50
270.0000000000085
 51
0.0
  0
LINE
  5
2C1
330
1F
100
AcDbEntity
  8
0
100
AcDbLine
 10
5.89341675863146
 20
4.463926978780451
 30
0.0
 11
5.89341675863146
 21
2.593848335421853
 31
0.0
  0
LINE
  5
2C2
330
1F
100
AcDbEntity
  8
0
100
AcDbLine
 10
8.019401065745993
 20
2.593848335421853
 30
0.0
 11
8.019401065745993
 21
4.463926978780451
 31
0.0
  0
ELLIPSE
  5
2C3
330
1F
100
AcDbEntity
  8
0
100
AcDbEllipse
 10
6.956408912188726
 20
4.463927046833002
 30
0.0
 11
1.06299212598425
 21
0.0
 31
0.0
210
0.0
220
0.0
230
1.0
 40
0.2222222222222228
 41
1.570796326794896
 42
3.141592653589792
  0
ELLIPSE
  5
2C4
330
1F
100
AcDbEntity
  8
0
100
AcDbEllipse
 10
6.956408912188726
 20
4.463927046833002
 30
0.0
 11
-1.062992125984251
 21
0.0
 31
-0.0000000000000001
210
-0.0000000000000001
220
0.0
230
1.0
 40
0.222222222222221
 41
3.141592653589792
 42
4.712388980384693
  0
ARC
  5
2C7
330
1F
100
AcDbEntity
  8
0
100
AcDbCircle
 10
8.216251431873766
 20
2.160777440533781
 30
0.0
 40
0.1968503937007888
100
AcDbArc
 50
180.0
 51
270.0000000000008
  0
ARC
  5
2C8
330
1F
100
AcDbEntity
  8
0
100
AcDbCircle
 10
5.696566392503687
 20
2.160777440533781
 30
0.0
 40
0.1968503937007879
100
AcDbArc
 50
270.0000000000008
 51
0.0
  0
LINE
  5
2C9
330
1F
100
AcDbEntity
  8
0
100
AcDbLine
 10
8.019401065745993
 20
2.160777434960516
 30
0.0
 11
8.019401065745993
 21
2.456053000578652
 31
0.0
  0
LINE
  5
2CA
330
1F
100
AcDbEntity
  8
0
100
AcDbLine
 10
5.89341675863146
 20
2.456053000578652
 30
0.0
 11
5.89341675863146
 21
2.160777434960516
 31
0.0
  0
ARC
  5
2CB
330
1F
100
AcDbEntity
  8
0
100
AcDbCircle
 10
7.9997159988029
 20
2.456053031084962
 30
0.0
 40
0.0196850393700787
100
AcDbArc
 50
0.0000000000002036
 51
90.0
  0
ARC
  5
2CC
330
1F
100
AcDbEntity
  8
0
100
AcDbCircle
 10
5.913101825574553
 20
2.456053031084962
 30
0.0
 40
0.0196850393700787
100
AcDbArc
 50
90.0
 51
179.9999999999998
  0
ARC
  5
2CD
330
1F
100
AcDbEntity
  8
0
100
AcDbCircle
 10
6.070582140535183
 20
2.515108149195198
 30
0.0
 40
0.0393700787401574
100
AcDbArc
 50
270.0000000000008
 51
0.0000000000000509
  0
ARC
  5
2CE
330
1F
100
AcDbEntity
  8
0
100
AcDbCircle
 10
7.84223568384227
 20
2.515108149195198
 30
0.0
 40
0.0393700787401574
100
AcDbArc
 50
179.9999999999999
 51
270.0000000000008
  0
LINE
  5
2CF
330
1F
100
AcDbEntity
  8
0
100
AcDbLine
 10
7.802865633848447
 20
2.515108165035019
 30
0.0
 11
7.802865633848447
 21
2.574163256158901
 31
0.0
  0
LINE
  5
2D0
330
1F
100
AcDbEntity
  8
0
100
AcDbLine
 10
6.109952190529006
 20
2.574163256158901
 30
0.0
 11
6.109952190529006
 21
2.515108165035019
 31
0.0
  0
LINE
  5
2D1
330
1F
100
AcDbEntity
  8
0
100
AcDbLine
 10
4.279243412366365
 20
1.609596333918297
 30
0.0
 11
4.279243412366365
 21
1.550541224461294
 31
0.0
  0
LINE
  5
2D2
330
1F
100
AcDbEntity
  8
0
100
AcDbLine
 10
9.633574412011087
 20
1.550541224461294
 30
0.0
 11
9.633574412011087
 21
1.609596333918297
 31
0.0
  0
LINE
  5
2E9
330
1F
100
AcDbEntity
  8
0
100
AcDbLine
 10
7.999715986483042
 20
2.574163256158901
 30
0.0
 11
5.91310183789441
 21
2.574163256158901
 31
0.0
  0
SPLINE
  5
2EA
330
1F
100
AcDbEntity
  8
0
100
AcDbSpline
210
0.0
220
0.0
230
1.0
 70
     9
 71
     3
 72
    26
 73
    22
 74
     0
 42
0.0000000001
 43
0.0000000001
 40
0.0
 40
0.0
 40
0.0
 40
0.0
 40
0.0534996008400635
 40
0.1069925780073916
 40
0.1606581820185712
 40
0.2144405429451816
 40
0.268033792266811
 40
0.3214271716550816
 40
0.3749219309598755
 40
0.4286602525489968
 40
0.482405778621698
 40
0.5359117035783795
 40
0.5893052039132397
 40
0.6428854263522466
 40
0.6966644070648607
 40
0.7503429091151653
 40
0.8037767782862134
 40
0.8572042477186963
 40
0.9108724929800931
 40
0.9646541585323259
 40
0.9999999999999998
 40
0.9999999999999998
 40
0.9999999999999998
 40
0.9999999999999998
 10
6.956408912188726
 20
4.040698654616833
 30
0.0
 10
6.968548367909901
 20
4.04188937930224
 30
0.0
 10
6.992825776391846
 20
4.044270681251942
 30
0.0
 10
7.025160368418563
 20
4.062826311979221
 30
0.0
 10
7.04982571382389
 20
4.090201751267391
 30
0.0
 10
7.063999035652101
 20
4.12448109701907
 30
0.0
 10
7.066032250548386
 20
4.161422923705825
 30
0.0
 10
7.055775294436317
 20
4.196894455272073
 30
0.0
 10
7.034408336041125
 20
4.226999548617347
 30
0.0
 10
7.004226403234843
 20
4.248412196721303
 30
0.0
 10
6.968614200490107
 20
4.258628831132051
 30
0.0
 10
6.931696247981694
 20
4.256487579702235
 30
0.0
 10
6.897617581381
 20
4.242318827118202
 30
0.0
 10
6.870084918610714
 20
4.217686524706683
 30
0.0
 10
6.852202534792717
 20
4.185259072738654
 30
0.0
 10
6.846074849080386
 20
4.14873108025346
 30
0.0
 10
6.852350099866169
 20
4.11233143514966
 30
0.0
 10
6.87025615860624
 20
4.080020124893755
 30
0.0
 10
6.897842048557483
 20
4.055563125733089
 30
0.0
 10
6.928253077890463
 20
4.04255352633729
 30
0.0
 10
6.948413693392184
 20
4.041225369793783
 30
0.0
 10
6.956408912188726
 20
4.040698654616833
 30
0.0
  0
CIRCLE
  5
2EB
330
1F
100
AcDbEntity
  8
0
100
AcDbCircle
 10
6.956408912188726
 20
4.148966416911744
 30
0.0
 40
0.0984251968503935
  0
LINE
  5
2F4
330
1F
100
AcDbEntity
  8
0
100
AcDbLine
 10
5.629004526477461
 20
1.963927045659678
 30
0.0
 11
5.519401059292734
 21
1.963927045659678
 31
0.0
  0
LINE
  5
2F5
330
1F
100
AcDbEntity
  8
0
100
AcDbLine
 10
8.393416765084719
 20
1.963927045659678
 30
0.0
 11
5.629004526477461
 21
1.963927045659678
 31
0.0
  0
LINE
  5
2F6
330
1F
100
AcDbEntity
  8
0
100
AcDbLine
 10
5.992676898636519
 20
2.475738079841604
 30
0.0
 11
5.91310183789441
 21
2.475738079841604
 31
0.0
  0
LINE
  5
2F7
330
1F
100
AcDbEntity
  8
0
100
AcDbLine
 10
7.999715986483042
 20
2.475738079841604
 30
0.0
 11
5.992676898636519
 21
2.475738079841604
 31
0.0
  0
CIRCLE
  5
2F8
330
1F
100
AcDbEntity
  8
0
100
AcDbCircle
 10
6.956408912188726
 20
4.148966416911744
 30
0.0
 40
0.0954724409448824
  0
LINE
  5
2F9
330
1F
100
AcDbEntity
  8
0
100
AcDbLine
 10
6.483967963200218
 20
1.550541224461294
 30
0.0
 11
6.483967963200218
 21
1.609596333918297
 31
0.0
  0
LINE
  5
2FA
330
1F
100
AcDbEntity
  8
0
100
AcDbLine
 10
6.483967963200218
 20
1.550541224461294
 30
0.0
 11
5.747225147449427
 21
1.550541224461294
 31
0.0
  0
LINE
  5
2FB
330
1F
100
AcDbEntity
  8
0
100
AcDbLine
 10
7.428849861177235
 20
1.609596333918297
 30
0.0
 11
7.428849861177235
 21
1.550541224461294
 31
0.0
  0
LINE
  5
2FC
330
1F
100
AcDbEntity
  8
0
100
AcDbLine
 10
8.165592676928026
 20
1.550541224461294
 30
0.0
 11
7.428849861177235
 21
1.550541224461294
 31
0.0
  0
LINE
  5
2FD
330
1F
100
AcDbEntity
  8
0
100
AcDbLine
 10
5.747225147449427
 20
1.550541224461294
 30
0.0
 11
4.297817064468618
 21
1.550541224461294
 31
0.0
  0
LINE
  5
2FE
330
1F
100
AcDbEntity
  8
0
100
AcDbLine
 10
9.615000759908834
 20
1.550541224461294
 30
0.0
 11
8.165592676928026
 21
1.550541224461294
 31
0.0
  0
LINE
  5
2FF
330
1F
100
AcDbEntity
  8
0
100
AcDbLine
 10
4.297817064468618
 20
1.550541224461294
 30
0.0
 11
4.279243412366365
 21
1.550541224461294
 31
0.0
  0
LINE
  5
300
330
1F
100
AcDbEntity
  8
0
100
AcDbLine
 10
9.633574412011087
 20
1.550541224461294
 30
0.0
 11
9.615000759908834
 21
1.550541224461294
 31
0.0
  0
LINE
  5
354
330
1F
100
AcDbEntity
  8
0
100
AcDbLine
 10
6.956408912188726
 20
1.609596333918297
 30
0.0
 11
6.956408912188726
 21
1.747391613762132
 31
0.0
  0
LINE
  5
355
330
1F
100
AcDbEntity
  8
0
100
AcDbLine
 10
4.200503388644505
 20
1.609596333918297
 30
0.0
 11
4.200503388644505
 21
1.747391613762132
 31
0.0
  0
SPLINE
  5
356
330
1F
100
AcDbEntity
  8
0
100
AcDbSpline
210
0.0
220
0.0
230
1.0
 70
    24
 71
     3
 72
    43
 73
    39
 74
     0
 42
0.0000000001
 43
0.0000000001
 40
0.0
 40
0.0
 40
0.0
 40
0.0
 40
0.0179553750554269
 40
0.035862494603194
 40
0.0537306296149471
 40
0.0715572435914592
 40
0.0893684896480904
 40
0.1071571365579372
 40
0.1249232640363542
 40
0.1426880948313683
 40
0.1650391601453507
 40
0.1874090765286887
 40
0.2098024344009418
 40
0.2323534801268752
 40
0.2547885598621069
 40
0.2803905888706876
 40
0.305648482212227
 40
0.3305642825703168
 40
0.3552060348963676
 40
0.3796422389387172
 40
0.4199870249831187
 40
0.460063530374442
 40
0.500009415075057
 40
0.539959036828326
 40
0.5800354975597037
 40
0.6203765617130929
 40
0.6509388776795692
 40
0.6818586437241077
 40
0.7132552868702212
 40
0.7452133201135889
 40
0.8877676829203226
 40
0.9037355102019551
 40
0.9197193550306113
 40
0.9357192635565303
 40
0.951737957484341
 40
0.967790758827371
 40
0.9838754889844846
 40
1.0
 40
1.0
 40
1.0
 40
1.0
 10
4.200503388644505
 20
1.609596333918297
 30
0.0
 10
4.200521242805983
 20
1.609596333918297
 30
0.0
 10
4.200556903145446
 20
1.609596333918297
 30
0.0
 10
4.200845957501888
 20
1.609596333918297
 30
0.0
 10
4.20130872263406
 20
1.609596333918297
 30
0.0
 10
4.201962431055157
 20
1.609596333918297
 30
0.0
 10
4.20280373436169
 20
1.609596333918297
 30
0.0
 10
4.203833114016881
 20
1.609596333918297
 30
0.0
 10
4.205051481460301
 20
1.609596333918297
 30
0.0
 10
4.206580246900444
 20
1.609596333918297
 30
0.0
 10
4.2084825775261
 20
1.609596333918297
 30
0.0
 10
4.210821647769471
 20
1.609596333918297
 30
0.0
 10
4.213482958846169
 20
1.609596333918297
 30
0.0
 10
4.216388126790723
 20
1.609596333918297
 30
0.0
 10
4.219964296502798
 20
1.609596333918297
 30
0.0
 10
4.223232772147709
 20
1.609596333918297
 30
0.0
 10
4.237614165457697
 20
1.609596333918297
 30
0.0
 10
4.261173486639525
 20
1.609596333918297
 30
0.0
 10
4.293878088792667
 20
1.609596333918297
 30
0.0
 10
4.344283916551172
 20
1.609596333918297
 30
0.0
 10
4.419848393047916
 20
1.609596333918297
 30
0.0
 10
4.528360957110214
 20
1.609596333918297
 30
0.0
 10
4.656224708940773
 20
1.609596333918297
 30
0.0
 10
4.801624571096033
 20
1.609596333918297
 30
0.0
 10
4.962753793234011
 20
1.609596333918297
 30
0.0
 10
5.123067153830558
 20
1.609596333918297
 30
0.0
 10
5.277392116468206
 20
1.609596333918297
 30
0.0
 10
5.42256226073757
 20
1.609596333918297
 30
0.0
 10
5.572946878732986
 20
1.609596333918297
 30
0.0
 10
5.904433683354242
 20
1.609596333918297
 30
0.0
 10
6.210790318847476
 20
1.609596333918297
 30
0.0
 10
6.491637906597921
 20
1.609596333918297
 30
0.0
 10
6.568810153909162
 20
1.609596333918297
 30
0.0
 10
6.646066340466314
 20
1.609596333918297
 30
0.0
 10
6.723434534132778
 20
1.609596333918297
 30
0.0
 10
6.80094017016004
 20
1.609596333918297
 30
0.0
 10
6.878616687631646
 20
1.609596333918297
 30
0.0
 10
6.930456828499686
 20
1.609596333918297
 30
0.0
 10
6.956408912188726
 20
1.609596333918297
 30
0.0
  0
LINE
  5
357
330
1F
100
AcDbEntity
  8
0
100
AcDbLine
 10
9.712314435732947
 20
1.609596333918297
 30
0.0
 11
9.712314435732947
 21
1.747391613762132
 31
0.0
  0
SPLINE
  5
358
330
1F
100
AcDbEntity
  8
0
100
AcDbSpline
210
0.0
220
0.0
230
1.0
 70
    24
 71
     3
 72
    43
 73
    39
 74
     0
 42
0.0000000001
 43
0.0000000001
 40
0.0
 40
0.0
 40
0.0
 40
0.0
 40
0.0179558469578578
 40
0.0358624929840504
 40
0.0537306271879908
 40
0.0715572859200959
 40
0.0893685919190302
 40
0.1071572228381359
 40
0.12492327358294
 40
0.1426821640238426
 40
0.1650312998452642
 40
0.1874073370209052
 40
0.2097791553716556
 40
0.2324517261259072
 40
0.2547884956441242
 40
0.2803941650704187
 40
0.3056551859339258
 40
0.3305637353255835
 40
0.3552062501305129
 40
0.3796423179904603
 40
0.4199871293234999
 40
0.4600635737775801
 40
0.5000094566722543
 40
0.5399590766194136
 40
0.5800355946639085
 40
0.6203766298811942
 40
0.6509389080382788
 40
0.6818587156985564
 40
0.713255299373966
 40
0.7452132736604521
 40
0.8877677715235599
 40
0.903735620862866
 40
0.9197194345954272
 40
0.935719274056365
 40
0.9517379596663449
 40
0.9677907602836327
 40
0.9838755143933285
 40
0.9999999999999998
 40
0.9999999999999998
 40
0.9999999999999998
 40
0.9999999999999998
 10
6.956408912188726
 20
1.609596333918297
 30
0.0
 10
6.985308497201788
 20
1.609596333918297
 30
0.0
 10
7.04302847928926
 20
1.609596333918297
 30
0.0
 10
7.129506476447819
 20
1.609596333918297
 30
0.0
 10
7.215775741181349
 20
1.609596333918297
 30
0.0
 10
7.301890339693803
 20
1.609596333918297
 30
0.0
 10
7.387875336892347
 20
1.609596333918297
 30
0.0
 10
7.473760738266926
 20
1.609596333918297
 30
0.0
 10
7.559559291369107
 20
1.609596333918297
 30
0.0
 10
7.6526940246723
 20
1.609596333918297
 30
0.0
 10
7.753242927489487
 20
1.609596333918297
 30
0.0
 10
7.861209370568157
 20
1.609596333918297
 30
0.0
 10
7.969687342278581
 20
1.609596333918297
 30
0.0
 10
8.078101692373284
 20
1.609596333918297
 30
0.0
 10
8.191683815549902
 20
1.609596333918297
 30
0.0
 10
8.309520413666923
 20
1.609596333918297
 30
0.0
 10
8.430803201825092
 20
1.609596333918297
 30
0.0
 10
8.549000252054323
 20
1.609596333918297
 30
0.0
 10
8.663645392861848
 20
1.609596333918297
 30
0.0
 10
8.798595617618003
 20
1.609596333918297
 30
0.0
 10
8.950078075996437
 20
1.609596333918297
 30
0.0
 10
9.111201530314275
 20
1.609596333918297
 30
0.0
 10
9.256602143967166
 20
1.609596333918297
 30
0.0
 10
9.384463577532008
 20
1.609596333918297
 30
0.0
 10
9.492979389361511
 20
1.609596333918297
 30
0.0
 10
9.572936188402048
 20
1.609596333918297
 30
0.0
 10
9.62887486523595
 20
1.609596333918297
 30
0.0
 10
9.66544579232411
 20
1.609596333918297
 30
0.0
 10
9.688108862876131
 20
1.609596333918297
 30
0.0
 10
9.699049497049697
 20
1.609596333918297
 30
0.0
 10
9.706059762220146
 20
1.609596333918297
 30
0.0
 10
9.709630993243822
 20
1.609596333918297
 30
0.0
 10
9.710461286949927
 20
1.609596333918297
 30
0.0
 10
9.711138348235675
 20
1.609596333918297
 30
0.0
 10
9.71166531129479
 20
1.609596333918297
 30
0.0
 10
9.712038235566247
 20
1.609596333918297
 30
0.0
 10
9.712271524669562
 20
1.609596333918297
 30
0.0
 10
9.712300120287173
 20
1.609596333918297
 30
0.0
 10
9.712314435732947
 20
1.609596333918297
 30
0.0
  0
SPLINE
  5
359
330
1F
100
AcDbEntity
  8
0
100
AcDbSpline
210
0.0
220
0.0
230
1.0
 70
     8
 71
     3
 72
    19
 73
    15
 74
     0
 42
0.0000000001
 43
0.0000000001
 40
0.0
 40
0.0
 40
0.0
 40
0.0
 40
0.186950707211071
 40
0.3613528737491551
 40
0.5202000937085019
 40
0.6605187188784529
 40
0.749534326396573
 40
0.8261053434926633
 40
0.8893137869373241
 40
0.927582251859744
 40
0.9580162236196771
 40
0.9742732746075862
 40
0.9878970231849059
 40
1.0
 40
1.0
 40
1.0
 40
1.0
 10
5.400598178380419
 20
1.963393790153225
 30
0.0
 10
5.322791924376476
 20
1.96180791292637
 30
0.0
 10
5.172401942442689
 20
1.958742606023356
 30
0.0
 10
4.956214308481195
 20
1.945619664769991
 30
0.0
 10
4.759930656142468
 20
1.927097723325598
 30
0.0
 10
4.59979342879903
 20
1.905092385204491
 30
0.0
 10
4.474586485913514
 20
1.881662393992677
 30
0.0
 10
4.382003304353569
 20
1.859197897738137
 30
0.0
 10
4.311308818887205
 20
1.836451425509386
 30
0.0
 10
4.261091121387358
 20
1.814164729055811
 30
0.0
 10
4.230707466014087
 20
1.795473489448687
 30
0.0
 10
4.21254583479478
 20
1.778110238943054
 30
0.0
 10
4.202504706558747
 20
1.76320074160214
 30
0.0
 10
4.201143676643148
 20
1.752449478258789
 30
0.0
 10
4.200503388644505
 20
1.74739161376213
 30
0.0
  0
SPLINE
  5
35A
330
1F
100
AcDbEntity
  8
0
100
AcDbSpline
210
0.0
220
0.0
230
1.0
 70
     8
 71
     3
 72
    22
 73
    18
 74
     0
 42
0.0000000001
 43
0.0000000001
 40
0.0
 40
0.0
 40
0.0
 40
0.0
 40
0.0000009712079576
 40
0.0718185587488384
 40
0.1438648419722048
 40
0.2156819881517381
 40
0.2874915102972535
 40
0.3595316162921524
 40
0.4313424945961375
 40
0.5031615584345874
 40
0.5752067253772039
 40
0.6470229090111825
 40
0.7188347935908836
 40
0.7908772189905983
 40
0.8626903614475029
 40
0.9334411394097251
 40
1.0
 40
1.0
 40
1.0
 40
1.0
 10
6.956408912188726
 20
1.963393790153225
 30
0.0
 10
6.956408124787182
 20
1.963393790153225
 30
0.0
 10
6.898181620792493
 20
1.96339379017419
 30
0.0
 10
6.781443404169666
 20
1.963384162007432
 30
0.0
 10
6.608730416858147
 20
1.963371199122517
 30
0.0
 10
6.440299012534061
 20
1.96334607293605
 30
0.0
 10
6.278567019895752
 20
1.963352969314045
 30
0.0
 10
6.125359848808649
 20
1.963404757242028
 30
0.0
 10
5.982520937182201
 20
1.963496964499602
 30
0.0
 10
5.852241311959798
 20
1.963531954763343
 30
0.0
 10
5.735693234908882
 20
1.963476804968196
 30
0.0
 10
5.634316820020637
 20
1.963392184202117
 30
0.0
 10
5.550108243370639
 20
1.963347940327148
 30
0.0
 10
5.48339052200585
 20
1.963351161893976
 30
0.0
 10
5.435779477173862
 20
1.963372035789221
 30
0.0
 10
5.406608384194621
 20
1.963387074907095
 30
0.0
 10
5.402940993227683
 20
1.96339127672273
 30
0.0
 10
5.401163278519001
 20
1.963393313492065
 30
0.0
  0
SPLINE
  5
35B
330
1F
100
AcDbEntity
  8
0
100
AcDbSpline
210
0.0
220
0.0
230
1.0
 70
    24
 71
     3
 72
    19
 73
    15
 74
     0
 42
0.0000000001
 43
0.0000000001
 40
0.0
 40
0.0
 40
0.0
 40
0.0
 40
0.0121029768151079
 40
0.0257267253924275
 40
0.0419837763803362
 40
0.0724177481402691
 40
0.1106862130626883
 40
0.1738946565073482
 40
0.2504656736034376
 40
0.3394812811215565
 40
0.4797999062915056
 40
0.63864712625085
 40
0.8130492927889315
 40
1.0
 40
1.0
 40
1.0
 40
1.0
 10
6.956408912188726
 20
1.747391613762113
 30
0.0
 10
6.956408912188726
 20
1.752449478258776
 30
0.0
 10
6.956408912188726
 20
1.763200741602135
 30
0.0
 10
6.956408912188726
 20
1.778110238943054
 30
0.0
 10
6.956408912188726
 20
1.795473489448688
 30
0.0
 10
6.956408912188726
 20
1.814164729055811
 30
0.0
 10
6.956408912188726
 20
1.836451425509386
 30
0.0
 10
6.956408912188726
 20
1.859197897738137
 30
0.0
 10
6.956408912188726
 20
1.881662393992677
 30
0.0
 10
6.956408912188726
 20
1.905092385204491
 30
0.0
 10
6.956408912188726
 20
1.927097723325598
 30
0.0
 10
6.956408912188726
 20
1.945619664769991
 30
0.0
 10
6.956408912188726
 20
1.958742606023356
 30
0.0
 10
6.956408912188726
 20
1.96180791292637
 30
0.0
 10
6.956408912188726
 20
1.963393790153225
 30
0.0
  0
LWPOLYLINE
  5
35C
330
1F
100
AcDbEntity
  8
0
100
AcDbPolyline
 90
       17
 70
   128
 43
0.0
 10
8.511604093107953
 20
1.963393203493335
 10
8.502299960590086
 20
1.963384293596263
 10
8.472898326906934
 20
1.963368967106649
 10
8.424559165325053
 20
1.963351403976207
 10
8.357453633867212
 20
1.963359983877091
 10
8.272461429037749
 20
1.963408951644745
 10
8.171208185390526
 20
1.963480817481211
 10
8.054483107141924
 20
1.963510847134306
 10
7.923631478751101
 20
1.963471082593669
 10
7.781070192297914
 20
1.963399271756568
 10
7.627970807581737
 20
1.963354318942533
 10
7.465908873068367
 20
1.963353310620848
 10
7.297953939964753
 20
1.9633712220806
 10
7.128229292305033
 20
1.963385888577838
 10
6.956411274393366
 20
1.963393790153225
 10
6.956408912188726
 20
1.963393790153225
 10
6.956408912188726
 20
1.963393790153225
  0
SPLINE
  5
35D
330
1F
100
AcDbEntity
  8
0
100
AcDbSpline
210
0.0
220
0.0
230
1.0
 70
     8
 71
     3
 72
    19
 73
    15
 74
     0
 42
0.0000000001
 43
0.0000000001
 40
0.0
 40
0.0
 40
0.0
 40
0.0
 40
0.186950707211071
 40
0.3613528737491551
 40
0.5202000937085019
 40
0.6605187188784529
 40
0.749534326396573
 40
0.8261053434926633
 40
0.8893137869373241
 40
0.927582251859744
 40
0.9580162236196771
 40
0.9742732746075862
 40
0.9878970231849059
 40
1.0
 40
1.0
 40
1.0
 40
1.0
 10
8.512219645997033
 20
1.963393790153225
 30
0.0
 10
8.590025900000977
 20
1.96180791292637
 30
0.0
 10
8.740415881934763
 20
1.958742606023356
 30
0.0
 10
8.956603515896258
 20
1.945619664769991
 30
0.0
 10
9.152887168234984
 20
1.927097723325598
 30
0.0
 10
9.313024395578421
 20
1.905092385204491
 30
0.0
 10
9.438231338463939
 20
1.881662393992677
 30
0.0
 10
9.530814520023884
 20
1.859197897738137
 30
0.0
 10
9.601509005490248
 20
1.836451425509386
 30
0.0
 10
9.651726702990094
 20
1.814164729055811
 30
0.0
 10
9.682110358363365
 20
1.795473489448687
 30
0.0
 10
9.700271989582674
 20
1.778110238943054
 30
0.0
 10
9.710313117818705
 20
1.76320074160214
 30
0.0
 10
9.711674147734305
 20
1.752449478258789
 30
0.0
 10
9.712314435732947
 20
1.74739161376213
 30
0.0
  0
LINE
  5
3B0
330
1F
100
AcDbEntity
  8
0
100
AcDbLine
 10
8.413101825574553
 20
10.72060288335518
 30
0.0
 11
9.71231442399975
 21
10.72060288335518
 31
0.0
  0
LINE
  5
3B6
330
1F
100
AcDbEntity
  8
0
100
AcDbLine
 10
6.956408912188726
 20
12.68910682036304
 30
0.0
 11
6.956408912188726
 21
13.47650839516621
 31
0.0
  0
LINE
  5
3B7
330
1F
100
AcDbEntity
  8
0
100
AcDbLine
 10
6.956408912188726
 20
12.68910682036304
 30
0.0
 11
6.956408912188726
 21
13.4765083951662
 31
0.0
  0
SPLINE
  5
3B8
330
1F
100
AcDbEntity
  8
0
100
AcDbSpline
210
0.0
220
0.0
230
1.0
 70
    25
 71
     3
 72
    10
 73
     6
 74
     0
 42
0.0000000001
 43
0.0000000001
 40
0.8069415967032799
 40
0.8069415967032799
 40
0.8069415967032799
 40
0.8069415967032799
 40
0.8296165482661226
 40
0.9129030556607297
 40
1.0
 40
1.0
 40
1.0
 40
1.0
 10
6.956408912188726
 20
12.68910684969604
 30
0.0
 10
6.956408912188726
 20
12.68902260734677
 30
0.0
 10
6.956408912188726
 20
12.68855494499074
 30
0.0
 10
6.956408912188725
 20
12.6892205350748
 30
0.0
 10
6.956408912188725
 20
12.68914530563
 30
0.0
 10
6.956408912188725
 20
12.68910684969605
 30
0.0
  0
ENDSEC
  0
SECTION
  2
OBJECTS
  0
DICTIONARY
  5
C
330
0
100
AcDbDictionary
281
     1
  3
ACAD_CIP_PREVIOUS_PRODUCT_INFO
350
3AA
  3
ACAD_COLOR
350
391
  3
ACAD_GROUP
350
D
  3
ACAD_LAYOUT
350
1A
  3
ACAD_MATERIAL
350
35F
  3
ACAD_MLEADERSTYLE
350
3A6
  3
ACAD_MLINESTYLE
350
17
  3
ACAD_PLOTSETTINGS
350
19
  3
ACAD_PLOTSTYLENAME
350
E
  3
ACAD_SCALELIST
350
394
  3
ACAD_TABLESTYLE
350
392
  3
ACAD_VISUALSTYLE
350
378
  3
ACDB_RECOMPOSE_DATA
350
43E
  3
AcDbVariableDictionary
350
431
  0
DICTIONARY
  5
3FA
330
8
100
AcDbDictionary
280
     1
281
     1
  0
DICTIONARY
  5
3ED
330
2
100
AcDbDictionary
280
     1
281
     1
  3
ACAD_LAYERSTATES
360
3EE
  0
DICTIONARY
  5
3E6
330
10
100
AcDbDictionary
280
     1
281
     1
  3
ADSK_XREC_LAYER_RECONCILED
360
3E7
  0
DICTIONARY
  5
3E8
330
44
100
AcDbDictionary
280
     1
281
     1
  3
ADSK_XREC_LAYER_RECONCILED
360
3E9
  0
DICTIONARY
  5
3AC
330
1F
100
AcDbDictionary
280
     1
281
     1
  3
ACAD_SORTENTS
360
3AD
  0
XRECORD
  5
3AA
102
{ACAD_REACTORS
330
C
102
}
330
C
100
AcDbXrecord
280
     1
300
ACD
300
2012
300
85730ACD_2012_0F
  0
DICTIONARY
  5
391
102
{ACAD_REACTORS
330
C
102
}
330
C
100
AcDbDictionary
281
     1
  0
DICTIONARY
  5
D
102
{ACAD_REACTORS
330
C
102
}
330
C
100
AcDbDictionary
281
     1
  0
DICTIONARY
  5
1A
102
{ACAD_REACTORS
330
C
102
}
330
C
100
AcDbDictionary
281
     1
  3
Layout1
350
1E
  3
Layout2
350
26
  3
Model
350
22
  0
DICTIONARY
  5
35F
102
{ACAD_REACTORS
330
C
102
}
330
C
100
AcDbDictionary
281
     1
  3
ByBlock
350
368
  3
ByLayer
350
360
  3
Global
350
370
  0
DICTIONARY
  5
3A6
102
{ACAD_REACTORS
330
C
102
}
330
C
100
AcDbDictionary
281
     1
  3
Standard
350
3A7
  0
DICTIONARY
  5
17
102
{ACAD_REACTORS
330
C
102
}
330
C
100
AcDbDictionary
281
     1
  3
Standard
350
18
  0
DICTIONARY
  5
19
102
{ACAD_REACTORS
330
C
102
}
330
C
100
AcDbDictionary
281
     1
  0
ACDBDICTIONARYWDFLT
  5
E
102
{ACAD_REACTORS
330
C
102
}
330
C
100
AcDbDictionary
281
     1
  3
Normal
350
F
100
AcDbDictionaryWithDefault
340
F
  0
DICTIONARY
  5
394
102
{ACAD_REACTORS
330
C
102
}
330
C
100
AcDbDictionary
281
     1
  3
A0
350
395
  3
A1
350
396
  3
A2
350
397
  3
A3
350
398
  3
A4
350
399
  3
A5
350
39A
  3
A6
350
39B
  3
A7
350
39C
  3
A8
350
39D
  3
A9
350
39E
  3
B0
350
39F
  3
B1
350
3A0
  3
B2
350
3A1
  3
B3
350
3A2
  3
B4
350
3A3
  3
B5
350
3A4
  3
B6
350
3A5
  0
DICTIONARY
  5
392
102
{ACAD_REACTORS
330
C
102
}
330
C
100
AcDbDictionary
281
     1
  3
Standard
350
393
  0
DICTIONARY
  5
378
102
{ACAD_REACTORS
330
C
102
}
330
C
100
AcDbDictionary
281
     1
  3
2dWireframe
350
37E
  3
Basic
350
37D
  3
Brighten
350
384
  3
ColorChange
350
388
  3
Conceptual
350
381
  3
Dim
350
383
  3
EdgeColorOff
350
390
  3
Facepattern
350
387
  3
Flat
350
379
  3
FlatWithEdges
350
37A
  3
Gouraud
350
37B
  3
GouraudWithEdges
350
37C
  3
Hidden
350
380
  3
JitterOff
350
38E
  3
Linepattern
350
386
  3
OverhangOff
350
38F
  3
Realistic
350
382
  3
Shaded
350
38D
  3
Shaded with edges
350
38C
  3
Shades of Gray
350
389
  3
Sketchy
350
38A
  3
Thicken
350
385
  3
Wireframe
350
37F
  3
X-Ray
350
38B
  0
XRECORD
  5
43E
102
{ACAD_REACTORS
330
C
102
}
330
C
100
AcDbXrecord
280
     1
 90
        1
330
393
  0
DICTIONARY
  5
431
102
{ACAD_REACTORS
330
C
102
}
330
C
100
AcDbDictionary
281
     1
  3
CANNOSCALE
350
434
  3
CMLEADERSTYLE
350
433
  3
CTABLESTYLE
350
432
  3
XCLIPFRAME
350
43A
  0
DICTIONARY
  5
3EE
102
{ACAD_REACTORS
330
3ED
102
}
330
3ED
100
AcDbDictionary
281
     1
  0
XRECORD
  5
3E7
102
{ACAD_REACTORS
330
3E6
102
}
330
3E6
100
AcDbXrecord
280
     1
290
     1
  0
XRECORD
  5
3E9
102
{ACAD_REACTORS
330
3E8
102
}
330
3E8
100
AcDbXrecord
280
     1
290
     1
  0
SORTENTSTABLE
  5
3AD
102
{ACAD_REACTORS
330
3AC
102
}
330
3AC
100
AcDbSortentsTable
330
1F
331
27E
  5
28B
331
DC
  5
104
331
1DF
  5
1EC
331
27A
  5
287
331
D8
  5
100
331
D4
  5
F4
331
222
  5
22F
331
2E9
  5
2F6
331
D0
  5
F2
331
46
  5
46
331
89
  5
BB
331
35B
  5
3B7
331
21E
  5
22B
331
CC
  5
DB
331
2D1
  5
2DE
331
C8
  5
D7
331
2CD
  5
2DA
331
212
  5
21F
331
2C9
  5
2D6
331
85
  5
9F
331
81
  5
97
331
7D
  5
8B
331
79
  5
86
331
357
  5
3B3
331
19F
  5
1AC
331
20E
  5
21B
331
BC
  5
D3
331
19B
  5
1A8
331
2C1
  5
2CE
331
B8
  5
CE
331
103
  5
1A1
331
1F2
  5
1FF
331
75
  5
81
331
71
  5
7D
331
6D
  5
79
331
2FF
  5
30C
331
2FB
  5
308
331
2F7
  5
304
331
FF
  5
19D
331
1EE
  5
1FB
331
289
  5
296
331
1EA
  5
1F7
331
F3
  5
199
331
285
  5
292
331
1E2
  5
1EF
331
281
  5
28E
331
49
  5
49
331
27D
  5
28A
331
DB
  5
103
331
1DE
  5
1EB
331
279
  5
286
331
D7
  5
FF
331
D3
  5
F3
331
221
  5
22E
331
45
  5
45
331
8C
  5
C5
331
88
  5
BA
331
35A
  5
3B6
331
CF
  5
F1
331
21D
  5
22A
331
CB
  5
DA
331
2D0
  5
2DD
331
C7
  5
D6
331
1A6
  5
1B3
331
2CC
  5
2D9
331
211
  5
21E
331
2C8
  5
2D5
331
84
  5
9E
331
80
  5
93
331
7C
  5
89
331
78
  5
85
331
356
  5
3B2
331
19E
  5
1AB
331
BB
  5
D0
331
19A
  5
1A7
331
2C4
  5
2D1
331
2C0
  5
2CD
331
106
  5
1A4
331
102
  5
1A0
331
A3
  5
CD
331
1F1
  5
1FE
331
74
  5
80
331
70
  5
7C
331
2FE
  5
30B
331
2FA
  5
307
331
3B8
  5
83
331
2F6
  5
303
331
3B0
  5
55
331
9F
  5
CC
331
1ED
  5
1FA
331
F6
  5
19C
331
1E9
  5
1F6
331
97
  5
C8
331
F2
  5
198
331
1E5
  5
1F2
331
93
  5
C7
331
1E1
  5
1EE
331
280
  5
28D
331
54
  5
56
331
48
  5
48
331
27C
  5
289
331
DA
  5
102
331
D6
  5
F6
331
2EB
  5
2F8
331
220
  5
22D
331
8B
  5
BC
331
35D
  5
3B9
331
359
  5
3B5
331
CE
  5
DD
331
21C
  5
229
331
CA
  5
D9
331
1A9
  5
1B6
331
2CF
  5
2DC
331
C6
  5
D5
331
1A1
  5
1AE
331
2CB
  5
2D8
331
210
  5
21D
331
87
  5
B8
331
83
  5
9D
331
7F
  5
8E
331
7B
  5
88
331
355
  5
3B1
331
19D
  5
1AA
331
2C7
  5
2D4
331
BA
  5
CF
331
199
  5
1A6
331
20C
  5
219
331
2C3
  5
2D0
331
2BF
  5
2CC
331
105
  5
1A3
331
101
  5
19F
331
1F0
  5
1FD
331
77
  5
84
331
73
  5
7F
331
6F
  5
7B
331
6B
  5
77
331
2FD
  5
30A
331
2F9
  5
306
331
3B7
  5
59
331
2F5
  5
302
331
9E
  5
CB
331
1EC
  5
1F9
331
9A
  5
C9
331
F5
  5
19B
331
1E8
  5
1F5
331
1E4
  5
1F1
331
F1
  5
106
331
1E0
  5
1ED
331
53
  5
53
331
DD
  5
105
331
27F
  5
28C
331
27B
  5
288
331
D9
  5
101
331
D5
  5
F5
331
2EA
  5
2F7
331
47
  5
47
331
8E
  5
C6
331
35C
  5
3B8
331
358
  5
3B4
331
21F
  5
22C
331
CD
  5
DC
331
2D2
  5
2DF
331
C9
  5
D8
331
1A8
  5
1B5
331
1A4
  5
1B1
331
2CE
  5
2DB
331
C5
  5
D4
331
1A0
  5
1AD
331
213
  5
220
331
2CA
  5
2D7
331
86
  5
A3
331
82
  5
9A
331
7E
  5
8C
331
7A
  5
87
331
354
  5
3B0
331
300
  5
30D
331
20F
  5
21C
331
19C
  5
1A9
331
2C2
  5
2CF
331
20B
  5
218
331
198
  5
1A5
331
104
  5
1A2
331
100
  5
19E
331
1F3
  5
200
331
72
  5
7E
331
6E
  5
7A
331
2FC
  5
309
331
2F8
  5
305
331
3B6
  5
71
331
2F4
  5
301
331
1EF
  5
1FC
331
9D
  5
CA
331
28A
  5
297
331
1EB
  5
1F8
331
F4
  5
19A
331
1E3
  5
1F0
331
282
  5
28F
331
4E
  5
4E
331
4A
  5
4A
  0
LAYOUT
  5
1E
102
{ACAD_REACTORS
330
1A
102
}
330
1A
100
AcDbPlotSettings
  1

  2
none_device
  4

  6

 40
0.0
 41
0.0
 42
0.0
 43
0.0
 44
0.0
 45
0.0
 46
0.0
 47
0.0
 48
0.0
 49
0.0
140
0.0
141
0.0
142
1.0
143
1.0
 70
   688
 72
     0
 73
     0
 74
     5
  7

 75
    16
147
1.0
 76
     0
 77
     2
 78
   300
148
0.0
149
0.0
100
AcDbLayout
  1
Layout1
 70
     1
 71
     1
 10
0.0
 20
0.0
 11
12.0
 21
9.0
 12
0.0
 22
0.0
 32
0.0
 14
1.000000000000000E+20
 24
1.000000000000000E+20
 34
1.000000000000000E+20
 15
-1.000000000000000E+20
 25
-1.000000000000000E+20
 35
-1.000000000000000E+20
146
0.0
 13
0.0
 23
0.0
 33
0.0
 16
1.0
 26
0.0
 36
0.0
 17
0.0
 27
1.0
 37
0.0
 76
     0
330
1B
  0
LAYOUT
  5
26
102
{ACAD_REACTORS
330
1A
102
}
330
1A
100
AcDbPlotSettings
  1

  2
none_device
  4

  6

 40
0.0
 41
0.0
 42
0.0
 43
0.0
 44
0.0
 45
0.0
 46
0.0
 47
0.0
 48
0.0
 49
0.0
140
0.0
141
0.0
142
1.0
143
1.0
 70
   688
 72
     0
 73
     0
 74
     5
  7

 75
    16
147
1.0
 76
     0
 77
     2
 78
   300
148
0.0
149
0.0
100
AcDbLayout
  1
Layout2
 70
     1
 71
     2
 10
0.0
 20
0.0
 11
0.0
 21
0.0
 12
0.0
 22
0.0
 32
0.0
 14
0.0
 24
0.0
 34
0.0
 15
0.0
 25
0.0
 35
0.0
146
0.0
 13
0.0
 23
0.0
 33
0.0
 16
1.0
 26
0.0
 36
0.0
 17
0.0
 27
1.0
 37
0.0
 76
     0
330
23
  0
LAYOUT
  5
22
102
{ACAD_XDICTIONARY
360
3F3
102
}
102
{ACAD_REACTORS
330
1A
102
}
330
1A
100
AcDbPlotSettings
  1

  2
none_device
  4

  6

 40
0.0
 41
0.0
 42
0.0
 43
0.0
 44
0.0
 45
0.0
 46
0.0
 47
0.0
 48
0.0
 49
0.0
140
0.0
141
0.0
142
1.0
143
1.0
 70
  1712
 72
     0
 73
     0
 74
     0
  7

 75
     0
147
1.0
 76
     0
 77
     2
 78
   300
148
0.0
149
0.0
100
AcDbLayout
  1
Model
 70
     1
 71
     0
 10
0.0
 20
0.0
 11
34.0
 21
22.0
 12
0.0
 22
0.0
 32
0.0
 14
0.0
 24
0.0
 34
0.0
 15
34.0
 25
22.0
 35
0.0
146
0.0
 13
0.0
 23
0.0
 33
0.0
 16
1.0
 26
0.0
 36
0.0
 17
0.0
 27
1.0
 37
0.0
 76
     0
330
1F
331
29
  0
MATERIAL
  5
368
102
{ACAD_XDICTIONARY
360
369
102
}
102
{ACAD_REACTORS
330
35F
102
}
330
35F
100
AcDbMaterial
  1
ByBlock
 72
     0
 43
0.0208333333333333
 43
0.0
 43
0.0
 43
0.0
 43
0.0
 43
0.0208333333333333
 43
0.0
 43
0.0
 43
0.0
 43
0.0
 43
1.0
 43
0.0
 43
0.0
 43
0.0
 43
0.0
 43
1.0
 77
     0
 47
0.0208333333333333
 47
0.0
 47
0.0
 47
0.0
 47
0.0
 47
0.0208333333333333
 47
0.0
 47
0.0
 47
0.0
 47
0.0
 47
1.0
 47
0.0
 47
0.0
 47
0.0
 47
0.0
 47
1.0
171
     0
 49
0.0208333333333333
 49
0.0
 49
0.0
 49
0.0
 49
0.0
 49
0.0208333333333333
 49
0.0
 49
0.0
 49
0.0
 49
0.0
 49
1.0
 49
0.0
 49
0.0
 49
0.0
 49
0.0
 49
1.0
175
     0
142
0.0208333333333333
142
0.0
142
0.0
142
0.0
142
0.0
142
0.0208333333333333
142
0.0
142
0.0
142
0.0
142
0.0
142
1.0
142
0.0
142
0.0
142
0.0
142
0.0
142
1.0
179
     0
144
0.0208333333333333
144
0.0
144
0.0
144
0.0
144
0.0
144
0.0208333333333333
144
0.0
144
0.0
144
0.0
144
0.0
144
1.0
144
0.0
144
0.0
144
0.0
144
0.0
144
1.0
147
0.0208333333333333
147
0.0
147
0.0
147
0.0
147
0.0
147
0.0208333333333333
147
0.0
147
0.0
147
0.0
147
0.0
147
1.0
147
0.0
147
0.0
147
0.0
147
0.0
147
1.0
  0
MATERIAL
  5
360
102
{ACAD_XDICTIONARY
360
361
102
}
102
{ACAD_REACTORS
330
35F
102
}
330
35F
100
AcDbMaterial
  1
ByLayer
 72
     0
 43
0.0208333333333333
 43
0.0
 43
0.0
 43
0.0
 43
0.0
 43
0.0208333333333333
 43
0.0
 43
0.0
 43
0.0
 43
0.0
 43
1.0
 43
0.0
 43
0.0
 43
0.0
 43
0.0
 43
1.0
 77
     0
 47
0.0208333333333333
 47
0.0
 47
0.0
 47
0.0
 47
0.0
 47
0.0208333333333333
 47
0.0
 47
0.0
 47
0.0
 47
0.0
 47
1.0
 47
0.0
 47
0.0
 47
0.0
 47
0.0
 47
1.0
171
     0
 49
0.0208333333333333
 49
0.0
 49
0.0
 49
0.0
 49
0.0
 49
0.0208333333333333
 49
0.0
 49
0.0
 49
0.0
 49
0.0
 49
1.0
 49
0.0
 49
0.0
 49
0.0
 49
0.0
 49
1.0
175
     0
142
0.0208333333333333
142
0.0
142
0.0
142
0.0
142
0.0
142
0.0208333333333333
142
0.0
142
0.0
142
0.0
142
0.0
142
1.0
142
0.0
142
0.0
142
0.0
142
0.0
142
1.0
179
     0
144
0.0208333333333333
144
0.0
144
0.0
144
0.0
144
0.0
144
0.0208333333333333
144
0.0
144
0.0
144
0.0
144
0.0
144
1.0
144
0.0
144
0.0
144
0.0
144
0.0
144
1.0
147
0.0208333333333333
147
0.0
147
0.0
147
0.0
147
0.0
147
0.0208333333333333
147
0.0
147
0.0
147
0.0
147
0.0
147
1.0
147
0.0
147
0.0
147
0.0
147
0.0
147
1.0
  0
MATERIAL
  5
370
102
{ACAD_XDICTIONARY
360
371
102
}
102
{ACAD_REACTORS
330
35F
102
}
330
35F
100
AcDbMaterial
  1
Global
 72
     0
 43
0.0208333333333333
 43
0.0
 43
0.0
 43
0.0
 43
0.0
 43
0.0208333333333333
 43
0.0
 43
0.0
 43
0.0
 43
0.0
 43
1.0
 43
0.0
 43
0.0
 43
0.0
 43
0.0
 43
1.0
 77
     0
 47
0.0208333333333333
 47
0.0
 47
0.0
 47
0.0
 47
0.0
 47
0.0208333333333333
 47
0.0
 47
0.0
 47
0.0
 47
0.0
 47
1.0
 47
0.0
 47
0.0
 47
0.0
 47
0.0
 47
1.0
171
     0
 49
0.0208333333333333
 49
0.0
 49
0.0
 49
0.0
 49
0.0
 49
0.0208333333333333
 49
0.0
 49
0.0
 49
0.0
 49
0.0
 49
1.0
 49
0.0
 49
0.0
 49
0.0
 49
0.0
 49
1.0
175
     0
142
0.0208333333333333
142
0.0
142
0.0
142
0.0
142
0.0
142
0.0208333333333333
142
0.0
142
0.0
142
0.0
142
0.0
142
1.0
142
0.0
142
0.0
142
0.0
142
0.0
142
1.0
179
     0
144
0.0208333333333333
144
0.0
144
0.0
144
0.0
144
0.0
144
0.0208333333333333
144
0.0
144
0.0
144
0.0
144
0.0
144
1.0
144
0.0
144
0.0
144
0.0
144
0.0
144
1.0
147
0.0208333333333333
147
0.0
147
0.0
147
0.0
147
0.0
147
0.0208333333333333
147
0.0
147
0.0
147
0.0
147
0.0
147
1.0
147
0.0
147
0.0
147
0.0
147
0.0
147
1.0
  0
MLEADERSTYLE
  5
3A7
102
{ACAD_XDICTIONARY
360
43C
102
}
102
{ACAD_REACTORS
330
3A6
102
}
330
3A6
100
AcDbMLeaderStyle
170
     2
171
     1
172
     0
 90
        2
 40
0.0
 41
0.0
173
     1
 91
-1056964608
340
14
 92
       -2
290
     1
 42
0.09
291
     1
 43
0.36
  3
Standard
 44
0.18
300

342
11
174
     1
178
     6
175
     1
176
     0
 93
-1056964608
 45
0.18
292
     0
297
     0
 46
0.18
 94
-1056964608
 47
1.0
 49
1.0
140
1.0
293
     1
141
0.0
294
     1
177
     0
142
1.0
295
     0
296
     0
143
0.125
1001
ACAD_MLEADERVER
1070
     2
  0
MLINESTYLE
  5
18
102
{ACAD_REACTORS
330
17
102
}
330
17
100
AcDbMlineStyle
  2
STANDARD
 70
     0
  3

 62
   256
 51
90.0
 52
90.0
 71
     2
 49
0.5
 62
   256
  6
BYLAYER
 49
-0.5
 62
   256
  6
BYLAYER
  0
ACDBPLACEHOLDER
  5
F
102
{ACAD_REACTORS
330
E
102
}
330
E
  0
SCALE
  5
395
102
{ACAD_REACTORS
330
394
102
}
330
394
100
AcDbScale
 70
     0
300
1:1
140
1.0
141
1.0
290
     1
  0
SCALE
  5
396
102
{ACAD_REACTORS
330
394
102
}
330
394
100
AcDbScale
 70
     0
300
1/128" = 1'-0"
140
0.0078125
141
12.0
290
     0
  0
SCALE
  5
397
102
{ACAD_REACTORS
330
394
102
}
330
394
100
AcDbScale
 70
     0
300
1/64" = 1'-0"
140
0.015625
141
12.0
290
     0
  0
SCALE
  5
398
102
{ACAD_REACTORS
330
394
102
}
330
394
100
AcDbScale
 70
     0
300
1/32" = 1'-0"
140
0.03125
141
12.0
290
     0
  0
SCALE
  5
399
102
{ACAD_REACTORS
330
394
102
}
330
394
100
AcDbScale
 70
     0
300
1/16" = 1'-0"
140
0.0625
141
12.0
290
     0
  0
SCALE
  5
39A
102
{ACAD_REACTORS
330
394
102
}
330
394
100
AcDbScale
 70
     0
300
3/32" = 1'-0"
140
0.09375
141
12.0
290
     0
  0
SCALE
  5
39B
102
{ACAD_REACTORS
330
394
102
}
330
394
100
AcDbScale
 70
     0
300
1/8" = 1'-0"
140
0.125
141
12.0
290
     0
  0
SCALE
  5
39C
102
{ACAD_REACTORS
330
394
102
}
330
394
100
AcDbScale
 70
     0
300
3/16" = 1'-0"
140
0.1875
141
12.0
290
     0
  0
SCALE
  5
39D
102
{ACAD_REACTORS
330
394
102
}
330
394
100
AcDbScale
 70
     0
300
1/4" = 1'-0"
140
0.25
141
12.0
290
     0
  0
SCALE
  5
39E
102
{ACAD_REACTORS
330
394
102
}
330
394
100
AcDbScale
 70
     0
300
3/8" = 1'-0"
140
0.375
141
12.0
290
     0
  0
SCALE
  5
39F
102
{ACAD_REACTORS
330
394
102
}
330
394
100
AcDbScale
 70
     0
300
1/2" = 1'-0"
140
0.5
141
12.0
290
     0
  0
SCALE
  5
3A0
102
{ACAD_REACTORS
330
394
102
}
330
394
100
AcDbScale
 70
     0
300
3/4" = 1'-0"
140
0.75
141
12.0
290
     0
  0
SCALE
  5
3A1
102
{ACAD_REACTORS
330
394
102
}
330
394
100
AcDbScale
 70
     0
300
1" = 1'-0"
140
1.0
141
12.0
290
     0
  0
SCALE
  5
3A2
102
{ACAD_REACTORS
330
394
102
}
330
394
100
AcDbScale
 70
     0
300
1-1/2" = 1'-0"
140
1.5
141
12.0
290
     0
  0
SCALE
  5
3A3
102
{ACAD_REACTORS
330
394
102
}
330
394
100
AcDbScale
 70
     0
300
3" = 1'-0"
140
3.0
141
12.0
290
     0
  0
SCALE
  5
3A4
102
{ACAD_REACTORS
330
394
102
}
330
394
100
AcDbScale
 70
     0
300
6" = 1'-0"
140
6.0
141
12.0
290
     0
  0
SCALE
  5
3A5
102
{ACAD_REACTORS
330
394
102
}
330
394
100
AcDbScale
 70
     0
300
1'-0" = 1'-0"
140
12.0
141
12.0
290
     0
  0
TABLESTYLE
  5
393
102
{ACAD_XDICTIONARY
360
3F5
102
}
102
{ACAD_REACTORS
330
392
102
}
330
392
100
AcDbTableStyle
  3
Standard
 70
     0
 71
     0
 40
0.06
 41
0.06
280
     0
281
     0
  7
Standard
140
0.18
170
     2
 62
     0
 63
     7
283
     0
274
    -2
284
     1
 64
     0
275
    -2
285
     1
 65
     0
276
    -2
286
     1
 66
     0
277
    -2
287
     1
 67
     0
278
    -2
288
     1
 68
     0
279
    -2
289
     1
 69
     0
  7
Standard
140
0.25
170
     5
 62
     0
 63
     7
283
     0
274
    -2
284
     1
 64
     0
275
    -2
285
     1
 65
     0
276
    -2
286
     1
 66
     0
277
    -2
287
     1
 67
     0
278
    -2
288
     1
 68
     0
279
    -2
289
     1
 69
     0
  7
Standard
140
0.18
170
     5
 62
     0
 63
     7
283
     0
274
    -2
284
     1
 64
     0
275
    -2
285
     1
 65
     0
276
    -2
286
     1
 66
     0
277
    -2
287
     1
 67
     0
278
    -2
288
     1
 68
     0
279
    -2
289
     1
 69
     0
  0
VISUALSTYLE
  5
37E
102
{ACAD_XDICTIONARY
360
44C
102
}
102
{ACAD_REACTORS
330
378
102
}
330
378
100
AcDbVisualStyle
  2
2dWireframe
 70
     4
 71
     0
 72
     2
 73
     0
 90
        0
 40
-0.6
 41
-30.0
 62
     5
 63
     7
421
 16777215
 74
     1
 91
        4
 64
     7
 65
   257
 75
     1
175
     1
 42
1.0
 92
        0
 66
   257
 43
1.0
 76
     1
 77
     6
 78
     2
 67
     7
 79
     5
170
     0
171
     0
290
     0
174
     0
 93
        1
 44
0.0
173
     0
291
     0
 45
0.0
1001
ACAD
1000
AcDbSavedByObjectVersion
1070
     0
  0
VISUALSTYLE
  5
37D
102
{ACAD_XDICTIONARY
360
44A
102
}
102
{ACAD_REACTORS
330
378
102
}
330
378
100
AcDbVisualStyle
  2
Basic
 70
     7
 71
     1
 72
     0
 73
     1
 90
        0
 40
-0.6
 41
-30.0
 62
     5
 63
     7
421
 16777215
 74
     0
 91
        4
 64
     7
 65
   257
 75
     1
175
     1
 42
1.0
 92
        8
 66
     7
 43
1.0
 76
     1
 77
     6
 78
     2
 67
     7
 79
     5
170
     0
171
     0
290
     0
174
     0
 93
        1
 44
0.0
173
     0
291
     1
 45
0.0
1001
ACAD
1000
AcDbSavedByObjectVersion
1070
     0
  0
VISUALSTYLE
  5
384
102
{ACAD_XDICTIONARY
360
458
102
}
102
{ACAD_REACTORS
330
378
102
}
330
378
100
AcDbVisualStyle
  2
Brighten
 70
    12
 71
     2
 72
     2
 73
     0
 90
        0
 40
-0.6
 41
-30.0
 62
     5
 63
     7
421
 16777215
 74
     1
 91
        4
 64
     7
 65
   257
 75
     1
175
     1
 42
1.0
 92
        8
 66
     7
 43
1.0
 76
     1
 77
     6
 78
     2
 67
     7
 79
     5
170
     0
171
     0
290
     0
174
     0
 93
        1
 44
50.0
173
     0
291
     1
 45
0.0
1001
ACAD
1000
AcDbSavedByObjectVersion
1070
     0
  0
VISUALSTYLE
  5
388
102
{ACAD_XDICTIONARY
360
460
102
}
102
{ACAD_REACTORS
330
378
102
}
330
378
100
AcDbVisualStyle
  2
ColorChange
 70
    16
 71
     2
 72
     2
 73
     3
 90
        0
 40
-0.6
 41
-30.0
 62
     5
 63
     8
421
  8421504
 74
     1
 91
        4
 64
     7
 65
   257
 75
     1
175
     1
 42
1.0
 92
        8
 66
     8
424
  8421504
 43
1.0
 76
     1
 77
     6
 78
     2
 67
     7
 79
     5
170
     0
171
     0
290
     0
174
     0
 93
        1
 44
0.0
173
     0
291
     1
 45
0.0
1001
ACAD
1000
AcDbSavedByObjectVersion
1070
     0
  0
VISUALSTYLE
  5
381
102
{ACAD_XDICTIONARY
360
452
102
}
102
{ACAD_REACTORS
330
378
102
}
330
378
100
AcDbVisualStyle
  2
Conceptual
 70
     9
 71
     3
 72
     2
 73
     0
 90
        0
 40
-0.6
 41
-30.0
 62
     5
 63
     7
421
 16777215
 74
     2
 91
        2
 64
     7
 65
   257
 75
     1
175
     1
 42
179.0
 92
        8
 66
     7
 43
1.0
 76
     1
 77
     6
 78
     2
 67
     7
 79
     3
170
     0
171
     0
290
     0
174
     0
 93
        1
 44
0.0
173
     0
291
     0
 45
0.0
1001
ACAD
1000
AcDbSavedByObjectVersion
1070
     0
  0
VISUALSTYLE
  5
383
102
{ACAD_XDICTIONARY
360
456
102
}
102
{ACAD_REACTORS
330
378
102
}
330
378
100
AcDbVisualStyle
  2
Dim
 70
    11
 71
     2
 72
     2
 73
     0
 90
        0
 40
-0.6
 41
-30.0
 62
     5
 63
     7
421
 16777215
 74
     1
 91
        4
 64
     7
 65
   257
 75
     1
175
     1
 42
1.0
 92
        8
 66
     7
 43
1.0
 76
     1
 77
     6
 78
     2
 67
     7
 79
     5
170
     0
171
     0
290
     0
174
     0
 93
        1
 44
-50.0
173
     0
291
     1
 45
0.0
1001
ACAD
1000
AcDbSavedByObjectVersion
1070
     0
  0
VISUALSTYLE
  5
390
102
{ACAD_XDICTIONARY
360
470
102
}
102
{ACAD_REACTORS
330
378
102
}
330
378
100
AcDbVisualStyle
  2
EdgeColorOff
 70
    22
 71
     2
 72
     2
 73
     0
 90
        0
 40
-0.6
 41
-30.0
 62
     5
 63
     7
421
 16777215
 74
     1
 91
        4
 64
     7
 65
   257
 75
     1
175
     1
 42
1.0
 92
        8
 66
     7
 43
1.0
 76
     1
 77
     6
 78
     2
 67
     7
 79
     5
170
     0
171
     0
290
     0
174
     0
 93
        1
 44
0.0
173
     0
291
     1
 45
0.0
1001
ACAD
1000
AcDbSavedByObjectVersion
1070
     0
  0
VISUALSTYLE
  5
387
102
{ACAD_XDICTIONARY
360
45E
102
}
102
{ACAD_REACTORS
330
378
102
}
330
378
100
AcDbVisualStyle
  2
Facepattern
 70
    15
 71
     2
 72
     2
 73
     0
 90
        0
 40
-0.6
 41
-30.0
 62
     5
 63
     7
421
 16777215
 74
     1
 91
        4
 64
     7
 65
   257
 75
     1
175
     1
 42
1.0
 92
        8
 66
     7
 43
1.0
 76
     1
 77
     6
 78
     2
 67
     7
 79
     5
170
     0
171
     0
290
     0
174
     0
 93
        1
 44
0.0
173
     0
291
     1
 45
0.0
1001
ACAD
1000
AcDbSavedByObjectVersion
1070
     0
  0
VISUALSTYLE
  5
379
102
{ACAD_XDICTIONARY
360
442
102
}
102
{ACAD_REACTORS
330
378
102
}
330
378
100
AcDbVisualStyle
  2
Flat
 70
     0
 71
     2
 72
     1
 73
     1
 90
        2
 40
-0.6
 41
30.0
 62
     5
 63
     7
421
 16777215
 74
     0
 91
        0
 64
     7
 65
   257
 75
     1
175
     1
 42
1.0
 92
        8
 66
     7
 43
1.0
 76
     1
 77
     6
 78
     2
 67
     7
 79
     5
170
     0
171
     0
290
     0
174
     0
 93
       13
 44
0.0
173
     0
291
     1
 45
0.0
1001
ACAD
1000
AcDbSavedByObjectVersion
1070
     0
  0
VISUALSTYLE
  5
37A
102
{ACAD_XDICTIONARY
360
444
102
}
102
{ACAD_REACTORS
330
378
102
}
330
378
100
AcDbVisualStyle
  2
FlatWithEdges
 70
     1
 71
     2
 72
     1
 73
     1
 90
        2
 40
-0.6
 41
30.0
 62
     5
 63
     7
421
 16777215
 74
     1
 91
        0
 64
     7
 65
   257
 75
     1
175
     1
 42
1.0
 92
        0
 66
   257
 43
1.0
 76
     1
 77
     6
 78
     2
 67
     7
 79
     5
170
     0
171
     0
290
     0
174
     0
 93
       13
 44
0.0
173
     0
291
     1
 45
0.0
1001
ACAD
1000
AcDbSavedByObjectVersion
1070
     0
  0
VISUALSTYLE
  5
37B
102
{ACAD_XDICTIONARY
360
446
102
}
102
{ACAD_REACTORS
330
378
102
}
330
378
100
AcDbVisualStyle
  2
Gouraud
 70
     2
 71
     2
 72
     2
 73
     1
 90
        2
 40
-0.6
 41
30.0
 62
     5
 63
     7
421
 16777215
 74
     0
 91
        0
 64
     7
 65
   257
 75
     1
175
     1
 42
1.0
 92
        0
 66
     7
 43
1.0
 76
     1
 77
     6
 78
     2
 67
     7
 79
     5
170
     0
171
     0
290
     0
174
     0
 93
       13
 44
0.0
173
     0
291
     1
 45
0.0
1001
ACAD
1000
AcDbSavedByObjectVersion
1070
     0
  0
VISUALSTYLE
  5
37C
102
{ACAD_XDICTIONARY
360
448
102
}
102
{ACAD_REACTORS
330
378
102
}
330
378
100
AcDbVisualStyle
  2
GouraudWithEdges
 70
     3
 71
     2
 72
     2
 73
     1
 90
        2
 40
-0.6
 41
30.0
 62
     5
 63
     7
421
 16777215
 74
     1
 91
        0
 64
     7
 65
   257
 75
     1
175
     1
 42
1.0
 92
        0
 66
   257
 43
1.0
 76
     1
 77
     6
 78
     2
 67
     7
 79
     5
170
     0
171
     0
290
     0
174
     0
 93
       13
 44
0.0
173
     0
291
     1
 45
0.0
1001
ACAD
1000
AcDbSavedByObjectVersion
1070
     0
  0
VISUALSTYLE
  5
380
102
{ACAD_XDICTIONARY
360
450
102
}
102
{ACAD_REACTORS
330
378
102
}
330
378
100
AcDbVisualStyle
  2
Hidden
 70
     6
 71
     1
 72
     2
 73
     2
 90
        0
 40
-0.6
 41
-30.0
 62
     5
 63
     7
421
 16777215
 74
     2
 91
        2
 64
     7
 65
   257
 75
     2
175
     1
 42
40.0
 92
        0
 66
   257
 43
1.0
 76
     1
 77
     6
 78
     2
 67
     7
 79
     3
170
     0
171
     0
290
     0
174
     0
 93
        1
 44
0.0
173
     0
291
     0
 45
0.0
1001
ACAD
1000
AcDbSavedByObjectVersion
1070
     0
  0
VISUALSTYLE
  5
38E
102
{ACAD_XDICTIONARY
360
46C
102
}
102
{ACAD_REACTORS
330
378
102
}
330
378
100
AcDbVisualStyle
  2
JitterOff
 70
    20
 71
     2
 72
     2
 73
     0
 90
        0
 40
-0.6
 41
-30.0
 62
     5
 63
     7
421
 16777215
 74
     1
 91
        4
 64
     7
 65
   257
 75
     1
175
     1
 42
1.0
 92
       10
 66
     7
 43
1.0
 76
     1
 77
     6
 78
     2
 67
     7
 79
     5
170
     0
171
     0
290
     0
174
     0
 93
        1
 44
0.0
173
     0
291
     1
 45
0.0
1001
ACAD
1000
AcDbSavedByObjectVersion
1070
     0
  0
VISUALSTYLE
  5
386
102
{ACAD_XDICTIONARY
360
45C
102
}
102
{ACAD_REACTORS
330
378
102
}
330
378
100
AcDbVisualStyle
  2
Linepattern
 70
    14
 71
     2
 72
     2
 73
     0
 90
        0
 40
-0.6
 41
-30.0
 62
     5
 63
     7
421
 16777215
 74
     1
 91
        4
 64
     7
 65
   257
 75
     7
175
     7
 42
1.0
 92
        8
 66
     7
 43
1.0
 76
     1
 77
     6
 78
     2
 67
     7
 79
     5
170
     0
171
     0
290
     0
174
     0
 93
        1
 44
0.0
173
     0
291
     1
 45
0.0
1001
ACAD
1000
AcDbSavedByObjectVersion
1070
     0
  0
VISUALSTYLE
  5
38F
102
{ACAD_XDICTIONARY
360
46E
102
}
102
{ACAD_REACTORS
330
378
102
}
330
378
100
AcDbVisualStyle
  2
OverhangOff
 70
    21
 71
     2
 72
     2
 73
     0
 90
        0
 40
-0.6
 41
-30.0
 62
     5
 63
     7
421
 16777215
 74
     1
 91
        4
 64
     7
 65
   257
 75
     1
175
     1
 42
1.0
 92
        9
 66
     7
 43
1.0
 76
     1
 77
     6
 78
     2
 67
     7
 79
     5
170
     0
171
     0
290
     0
174
     0
 93
        1
 44
0.0
173
     0
291
     1
 45
0.0
1001
ACAD
1000
AcDbSavedByObjectVersion
1070
     0
  0
VISUALSTYLE
  5
382
102
{ACAD_XDICTIONARY
360
454
102
}
102
{ACAD_REACTORS
330
378
102
}
330
378
100
AcDbVisualStyle
  2
Realistic
 70
     8
 71
     2
 72
     2
 73
     0
 90
        2
 40
-0.6
 41
30.0
 62
     5
 63
     7
421
 16777215
 74
     0
 91
        0
 64
     7
 65
   257
 75
     1
175
     1
 42
1.0
 92
        8
 66
   257
 43
1.0
 76
     1
 77
     6
 78
     2
 67
     7
 79
     3
170
     0
171
     0
290
     0
174
     0
 93
       13
 44
0.0
173
     0
291
     0
 45
0.0
1001
ACAD
1000
AcDbSavedByObjectVersion
1070
     0
  0
VISUALSTYLE
  5
38D
102
{ACAD_XDICTIONARY
360
46A
102
}
102
{ACAD_REACTORS
330
378
102
}
330
378
100
AcDbVisualStyle
  2
Shaded
 70
    27
 71
     2
 72
     2
 73
     1
 90
        2
 40
-0.6
 41
30.0
 62
     5
 63
     7
421
 16777215
 74
     0
 91
        4
 64
     7
 65
   257
 75
     1
175
     1
 42
1.0
 92
        8
 66
   257
 43
1.0
 76
     1
 77
     6
 78
     2
 67
     8
425
  7895160
 79
     3
170
     0
171
     0
290
     0
174
     0
 93
        5
 44
0.0
173
     0
291
     0
 45
0.0
1001
ACAD
1000
AcDbSavedByObjectVersion
1070
     0
  0
VISUALSTYLE
  5
38C
102
{ACAD_XDICTIONARY
360
468
102
}
102
{ACAD_REACTORS
330
378
102
}
330
378
100
AcDbVisualStyle
  2
Shaded with edges
 70
    26
 71
     2
 72
     2
 73
     1
 90
        2
 40
-0.6
 41
30.0
 62
     5
 63
     7
421
 16777215
 74
     1
 91
       10
 64
     7
 65
   257
 75
     2
175
     1
 42
1.0
 92
        8
 66
   257
 43
1.0
 76
     1
 77
     6
 78
     2
 67
     7
 79
     3
170
     0
171
     0
290
     0
174
     0
 93
        5
 44
0.0
173
     0
291
     0
 45
0.0
1001
ACAD
1000
AcDbSavedByObjectVersion
1070
     0
  0
VISUALSTYLE
  5
389
102
{ACAD_XDICTIONARY
360
462
102
}
102
{ACAD_REACTORS
330
378
102
}
330
378
100
AcDbVisualStyle
  2
Shades of Gray
 70
    23
 71
     2
 72
     2
 73
     3
 90
        0
 40
-0.6
 41
-30.0
 62
     5
 63
     7
421
 16777215
 74
     2
 91
        2
 64
     7
 65
     7
 75
     1
175
     1
 42
40.0
 92
        8
 66
     7
 43
1.0
 76
     1
 77
     6
 78
     2
 67
     7
 79
     3
170
     0
171
     0
290
     0
174
     0
 93
        1
 44
0.0
173
     0
291
     0
 45
0.0
1001
ACAD
1000
AcDbSavedByObjectVersion
1070
     0
  0
VISUALSTYLE
  5
38A
102
{ACAD_XDICTIONARY
360
464
102
}
102
{ACAD_REACTORS
330
378
102
}
330
378
100
AcDbVisualStyle
  2
Sketchy
 70
    24
 71
     1
 72
     2
 73
     2
 90
        0
 40
-0.6
 41
-30.0
 62
     5
 63
     7
421
 16777215
 74
     2
 91
        2
 64
     7
 65
     7
 75
     1
175
     1
 42
40.0
 92
       11
 66
     7
 43
1.0
 76
     1
 77
     6
 78
     2
 67
     7
 79
     6
170
     0
171
     0
290
     0
174
     0
 93
        1
 44
0.0
173
     0
291
     0
 45
0.0
1001
ACAD
1000
AcDbSavedByObjectVersion
1070
     0
  0
VISUALSTYLE
  5
385
102
{ACAD_XDICTIONARY
360
45A
102
}
102
{ACAD_REACTORS
330
378
102
}
330
378
100
AcDbVisualStyle
  2
Thicken
 70
    13
 71
     2
 72
     2
 73
     0
 90
        0
 40
-0.6
 41
-30.0
 62
     5
 63
     7
421
 16777215
 74
     1
 91
        4
 64
     7
 65
   257
 75
     1
175
     1
 42
1.0
 92
       12
 66
     7
 43
1.0
 76
     1
 77
     6
 78
     2
 67
     7
 79
     5
170
     0
171
     0
290
     0
174
     0
 93
        1
 44
0.0
173
     0
291
     1
 45
0.0
1001
ACAD
1000
AcDbSavedByObjectVersion
1070
     0
  0
VISUALSTYLE
  5
37F
102
{ACAD_XDICTIONARY
360
44E
102
}
102
{ACAD_REACTORS
330
378
102
}
330
378
100
AcDbVisualStyle
  2
Wireframe
 70
     5
 71
     0
 72
     2
 73
     0
 90
        0
 40
-0.6
 41
-30.0
 62
     5
 63
     7
421
 16777215
 74
     1
 91
        4
 64
     7
 65
   257
 75
     1
175
     1
 42
1.0
 92
        0
 66
   257
 43
1.0
 76
     1
 77
     6
 78
     2
 67
     7
 79
     3
170
     0
171
     0
290
     0
174
     0
 93
        1
 44
0.0
173
     0
291
     0
 45
0.0
1001
ACAD
1000
AcDbSavedByObjectVersion
1070
     0
  0
VISUALSTYLE
  5
38B
102
{ACAD_XDICTIONARY
360
466
102
}
102
{ACAD_REACTORS
330
378
102
}
330
378
100
AcDbVisualStyle
  2
X-Ray
 70
    25
 71
     2
 72
     2
 73
     1
 90
        1
 40
0.5
 41
-30.0
 62
     5
 63
     7
421
 16777215
 74
     1
 91
        0
 64
     7
 65
   257
 75
     1
175
     1
 42
1.0
 92
        8
 66
     7
 43
1.0
 76
     1
 77
     6
 78
     2
 67
     7
 79
     3
170
     0
171
     0
290
     0
174
     0
 93
       13
 44
0.0
173
     0
291
     0
 45
0.0
1001
ACAD
1000
AcDbSavedByObjectVersion
1070
     0
  0
DICTIONARYVAR
  5
434
102
{ACAD_REACTORS
330
431
102
}
330
431
100
DictionaryVariables
280
     0
  1
1:1
  0
DICTIONARYVAR
  5
433
102
{ACAD_REACTORS
330
431
102
}
330
431
100
DictionaryVariables
280
     0
  1
STANDARD
  0
DICTIONARYVAR
  5
432
102
{ACAD_REACTORS
330
431
102
}
330
431
100
DictionaryVariables
280
     0
  1
STANDARD
  0
DICTIONARYVAR
  5
43A
102
{ACAD_REACTORS
330
431
102
}
330
431
100
DictionaryVariables
280
     0
  1
2
  0
DICTIONARY
  5
3F3
330
22
100
AcDbDictionary
280
     1
281
     1
  3
ADSK_XREC_LAYOUTTHUMBNAIL
360
3F4
  0
DICTIONARY
  5
369
330
368
100
AcDbDictionary
280
     1
281
     1
  3
ACAD_XREC_ROUNDTRIP
360
440
  3
BUMPTILE
360
36B
  3
DIFFUSETILE
360
36A
  3
OPACITYTILE
360
36E
  3
REFLECTIONTILE
360
36D
  3
REFRACTIONTILE
360
36F
  3
SPECULARTILE
360
36C
  0
DICTIONARY
  5
361
330
360
100
AcDbDictionary
280
     1
281
     1
  3
ACAD_XREC_ROUNDTRIP
360
43F
  3
BUMPTILE
360
363
  3
DIFFUSETILE
360
362
  3
OPACITYTILE
360
366
  3
REFLECTIONTILE
360
365
  3
REFRACTIONTILE
360
367
  3
SPECULARTILE
360
364
  0
DICTIONARY
  5
371
330
370
100
AcDbDictionary
280
     1
281
     1
  3
ACAD_XREC_ROUNDTRIP
360
441
  3
BUMPTILE
360
373
  3
DIFFUSETILE
360
372
  3
OPACITYTILE
360
376
  3
REFLECTIONTILE
360
375
  3
REFRACTIONTILE
360
377
  3
SPECULARTILE
360
374
  0
DICTIONARY
  5
43C
330
3A7
100
AcDbDictionary
280
     1
281
     1
  3
ACAD_XREC_ROUNDTRIP
360
43D
  0
DICTIONARY
  5
3F5
330
393
100
AcDbDictionary
280
     1
281
     1
  3
ACAD_ROUNDTRIP_2008_TABLESTYLE_CELLSTYLEMAP
360
43B
  3
ACAD_XREC_ROUNDTRIP
360
472
  0
DICTIONARY
  5
44C
330
37E
100
AcDbDictionary
280
     1
281
     1
  3
ACAD_XREC_ROUNDTRIP
360
44D
  0
DICTIONARY
  5
44A
330
37D
100
AcDbDictionary
280
     1
281
     1
  3
ACAD_XREC_ROUNDTRIP
360
44B
  0
DICTIONARY
  5
458
330
384
100
AcDbDictionary
280
     1
281
     1
  3
ACAD_XREC_ROUNDTRIP
360
459
  0
DICTIONARY
  5
460
330
388
100
AcDbDictionary
280
     1
281
     1
  3
ACAD_XREC_ROUNDTRIP
360
461
  0
DICTIONARY
  5
452
330
381
100
AcDbDictionary
280
     1
281
     1
  3
ACAD_XREC_ROUNDTRIP
360
453
  0
DICTIONARY
  5
456
330
383
100
AcDbDictionary
280
     1
281
     1
  3
ACAD_XREC_ROUNDTRIP
360
457
  0
DICTIONARY
  5
470
330
390
100
AcDbDictionary
280
     1
281
     1
  3
ACAD_XREC_ROUNDTRIP
360
471
  0
DICTIONARY
  5
45E
330
387
100
AcDbDictionary
280
     1
281
     1
  3
ACAD_XREC_ROUNDTRIP
360
45F
  0
DICTIONARY
  5
442
330
379
100
AcDbDictionary
280
     1
281
     1
  3
ACAD_XREC_ROUNDTRIP
360
443
  0
DICTIONARY
  5
444
330
37A
100
AcDbDictionary
280
     1
281
     1
  3
ACAD_XREC_ROUNDTRIP
360
445
  0
DICTIONARY
  5
446
330
37B
100
AcDbDictionary
280
     1
281
     1
  3
ACAD_XREC_ROUNDTRIP
360
447
  0
DICTIONARY
  5
448
330
37C
100
AcDbDictionary
280
     1
281
     1
  3
ACAD_XREC_ROUNDTRIP
360
449
  0
DICTIONARY
  5
450
330
380
100
AcDbDictionary
280
     1
281
     1
  3
ACAD_XREC_ROUNDTRIP
360
451
  0
DICTIONARY
  5
46C
330
38E
100
AcDbDictionary
280
     1
281
     1
  3
ACAD_XREC_ROUNDTRIP
360
46D
  0
DICTIONARY
  5
45C
330
386
100
AcDbDictionary
280
     1
281
     1
  3
ACAD_XREC_ROUNDTRIP
360
45D
  0
DICTIONARY
  5
46E
330
38F
100
AcDbDictionary
280
     1
281
     1
  3
ACAD_XREC_ROUNDTRIP
360
46F
  0
DICTIONARY
  5
454
330
382
100
AcDbDictionary
280
     1
281
     1
  3
ACAD_XREC_ROUNDTRIP
360
455
  0
DICTIONARY
  5
46A
330
38D
100
AcDbDictionary
280
     1
281
     1
  3
ACAD_XREC_ROUNDTRIP
360
46B
  0
DICTIONARY
  5
468
330
38C
100
AcDbDictionary
280
     1
281
     1
  3
ACAD_XREC_ROUNDTRIP
360
469
  0
DICTIONARY
  5
462
330
389
100
AcDbDictionary
280
     1
281
     1
  3
ACAD_XREC_ROUNDTRIP
360
463
  0
DICTIONARY
  5
464
330
38A
100
AcDbDictionary
280
     1
281
     1
  3
ACAD_XREC_ROUNDTRIP
360
465
  0
DICTIONARY
  5
45A
330
385
100
AcDbDictionary
280
     1
281
     1
  3
ACAD_XREC_ROUNDTRIP
360
45B
  0
DICTIONARY
  5
44E
330
37F
100
AcDbDictionary
280
     1
281
     1
  3
ACAD_XREC_ROUNDTRIP
360
44F
  0
DICTIONARY
  5
466
330
38B
100
AcDbDictionary
280
     1
281
     1
  3
ACAD_XREC_ROUNDTRIP
360
467
  0
XRECORD
  5
3F4
102
{ACAD_REACTORS
330
3F3
102
}
330
3F3
100
AcDbXrecord
280
     1
310
28000000000100006E0000000100080000000000006E0000000000000000000000010000000000003028210000000000C8C8C8000000000000000000000000000000000000000000000000000000000000000000330000006600000099000000CC000000FF00000000330000333300006633000099330000CC330000FF3300
310
0000660000336600006666000099660000CC660000FF66000000990000339900006699000099990000CC990000FF99000000CC000033CC000066CC000099CC0000CCCC0000FFCC000000FF000033FF000066FF000099FF0000CCFF0000FFFF000000003300330033006600330099003300CC003300FF003300003333003333
310
33006633330099333300CC333300FF33330000663300336633006666330099663300CC663300FF66330000993300339933006699330099993300CC993300FF99330000CC330033CC330066CC330099CC3300CCCC3300FFCC330000FF330033FF330066FF330099FF3300CCFF3300FFFF330000006600330066006600660099
310
006600CC006600FF00660000336600333366006633660099336600CC336600FF33660000666600336666006666660099666600CC666600FF66660000996600339966006699660099996600CC996600FF99660000CC660033CC660066CC660099CC6600CCCC6600FFCC660000FF660033FF660066FF660099FF6600CCFF6600
310
FFFF660000009900330099006600990099009900CC009900FF00990000339900333399006633990099339900CC339900FF33990000669900336699006666990099669900CC669900FF66990000999900339999006699990099999900CC999900FF99990000CC990033CC990066CC990099CC9900CCCC9900FFCC990000FF99
310
0033FF990066FF990099FF9900CCFF9900FFFF99000000CC003300CC006600CC009900CC00CC00CC00FF00CC000033CC003333CC006633CC009933CC00CC33CC00FF33CC000066CC003366CC006666CC009966CC00CC66CC00FF66CC000099CC003399CC006699CC009999CC00CC99CC00FF99CC0000CCCC0033CCCC0066CC
310
CC0099CCCC00CCCCCC00FFCCCC0000FFCC0033FFCC0066FFCC0099FFCC00CCFFCC00FFFFCC000000FF003300FF006600FF009900FF00CC00FF00FF00FF000033FF003333FF006633FF009933FF00CC33FF00FF33FF000066FF003366FF006666FF009966FF00CC66FF00FF66FF000099FF003399FF006699FF009999FF00CC
310
99FF00FF99FF0000CCFF0033CCFF0066CCFF0099CCFF00CCCCFF00FFCCFF0000FFFF0033FFFF0066FFFF0099FFFF00CCFFFF00FFFFFF00000000000D0D0D001A1A1A00282828003535350043434300505050005D5D5D006B6B6B00787878008686860093939300A1A1A100AEAEAE00BBBBBB00C9C9C900D6D6D600E4E4E400
310
F1F1F100FFFFFF000000000000000000000000000000000000000000000000000000000000000000000000000000000000000000000000000000000000000000000000000000000000000000000000000000000000000000000000000000000000000000000000000000000000000000000000000000000000000000000000
310
00000000000000000000000000000000000000000000000000000000000000000000000000000000000000000000000000000000000000000000000000000000000000000000000000000000000000000000000000000000000000000000000000000000000000000000000000000000000000000000000000000000000000
310
00000000000000000000000000000000000000000000000000000000000000000000000000000000000000000000000000000000000000000000000000000000000000000000000000000000000000000000000000000000000000000000000000000000000000000000000000000000000000000000000000000000000000
310
0000000000000000000000F5F5F5F5F5F5F5F5F5F5F5F5F5F5F5F5F5F5F5F5F5F5F5F5F5F5F5F5F5F5F5F5F5F500000000000000000000000000000000000000000000000000000000000000000000000000000000000000000000000000000000000000000000000000000000000000000000000000000000000000000000
310
00000000000000000000000000000000000000000000000000000000000000000000000000000000000000000000000000000000000000000000000000000000000000000000000000000000000000000000000000000000000000000000000000000000000000000000000000000000000000000000000000000000000000
310
00000000000000000000000000F5F5F5F5F5F5F5F5F5F5F5F5F5F5F5F5F5F5F5F5F5F5F5F5F5F5F5F5F5F5F5F5F5F50000000000000000000000000000000000000000000000000000000000000000000000000000000000000000000000000000000000000000000000000000000000000000000000000000000000000000
310
00000000000000000000000000000000000000000000000000000000000000000000000000000000000000000000000000000000000000000000000000000000000000000000000000000000000000000000000000000000000000000000000000000000000000000000000000000000000000000000000000000000000000
310
0000000000000000000000000000000000F5F5F5F5F5F5F5F5F5F5F5F5F5F5F5F5F5F5F5F5F5F5F5F5F5F5F5F5F5F50000000000000000000000000000000000000000000000000000000000000000000000000000000000000000000000000000000000000000000000000000000000000000000000000000000000000000
310
00000000000000000000000000000000000000000000000000000000000000000000000000000000000000000000000000000000000000000000000000000000000000000000000000000000000000000000000000000000000000000000000000000000000000000000000000000000000000000000000000000000000000
310
000000000000000000000000000000000000000000000000000000F5000000000000000000000000F50000000000000000000000000000000000000000000000000000000000000000000000000000000000000000000000000000000000000000000000000000000000000000000000000000000000000000000000000000
310
00000000000000000000000000000000000000000000000000000000000000000000000000000000000000000000000000000000000000000000000000000000000000000000000000000000000000000000000000000000000000000000000000000000000000000000000000000000000000000000000000000000000000
310
0000000000000000000000000000000000000000000000000000000000F5000000000000000000000000F5000000000000000000000000000000000000000000000000000000000000000000000000000000000000000000000000000000000000000000000000000000000000000000000000000000000000000000000000
310
00000000000000000000000000000000000000000000000000000000000000000000000000000000000000000000000000000000000000000000000000000000000000000000000000000000000000000000000000000000000000000000000000000000000000000000000000000000000000000000000000000000000000
310
00000000000000000000000000000000000000000000000000000000000000F5F5F5F5F5F5F5F5F5F5F5F5F5F500000000000000000000000000000000000000000000000000000000000000000000000000000000000000000000000000000000000000000000000000000000000000000000000000000000000000000000
310
00000000000000000000000000000000000000000000000000000000000000000000000000000000000000000000000000000000000000000000000000000000000000000000000000000000000000000000000000000000000000000000000000000000000000000000000000000000000000000000000000000000000000
310
000000000000000000000000000000000000000000000000000000000000000000F5F5F5F5F5F5F5F5F5F5F5F5F5F50000000000000000000000000000000000000000000000000000000000000000000000000000000000000000000000000000000000000000000000000000000000000000000000000000000000000000
310
00000000000000000000000000000000000000000000000000000000000000000000000000000000000000000000000000000000000000000000000000000000000000000000000000000000000000000000000000000000000000000000000000000000000000000000000000000000000000000000000000000000000000
310
0000000000000000000000000000000000000000000000000000000000000000000000F5000000000000000000000000F5000000000000000000000000000000000000000000000000000000000000000000000000000000000000000000000000000000000000000000000000000000000000000000000000000000000000
310
00000000000000000000000000000000000000000000000000000000000000000000000000000000000000000000000000000000000000000000000000000000000000000000000000000000000000000000000000000000000000000000000000000000000000000000000000000000000000000000000000000000000000
310
00000000000000000000000000000000000000000000000000000000000000000000000000F5000000000000000000000000F500000000000000000000000000000000000000000000000000000000000000000000000000000000000000000000000000000000000000000000000000000000000000000000000000000000
310
00000000000000000000000000000000000000000000000000000000000000000000000000000000000000000000000000000000000000000000000000000000000000000000000000000000000000000000000000000000000000000000000000000000000000000000000000000000000000000000000000000000000000
310
000000000000000000000000000000000000000000000000000000000000000000000000000000F5000000000000000000000000F50000000000000000000000000000000000000000000000000000000000000000000000000000000000000000000000000000000000000000000000000000000000000000000000000000
310
00000000000000000000000000000000000000000000000000000000000000000000000000000000000000000000000000000000000000000000000000000000000000000000000000000000000000000000000000000000000000000000000000000000000000000000000000000000000000000000000000000000000000
310
0000000000000000000000000000000000000000000000000000000000000000000000000000000000F5000000000000000000000000F5000000000000000000000000000000000000000000000000000000000000000000000000000000000000000000000000000000000000000000000000000000000000000000000000
310
00000000000000000000000000000000000000000000000000000000000000000000000000000000000000000000000000000000000000000000000000000000000000000000000000000000000000000000000000000000000000000000000000000000000000000000000000000000000000000000000000000000000000
310
00000000000000000000000000000000000000000000000000000000000000000000000000000000000000F5000000000000000000000000F500000000000000000000000000000000000000000000000000000000000000000000000000000000000000000000000000000000000000000000000000000000000000000000
310
00000000000000000000000000000000000000000000000000000000000000000000000000000000000000000000000000000000000000000000000000000000000000000000000000000000000000000000000000000000000000000000000000000000000000000000000000000000000000000000000000000000000000
310
000000000000000000000000000000000000000000000000000000000000000000000000000000000000000000F5000000000000000000000000F50000000000000000000000000000000000000000000000000000000000000000000000000000000000000000000000000000000000000000000000000000000000000000
310
00000000000000000000000000000000000000000000000000000000000000000000000000000000000000000000000000000000000000000000000000000000000000000000000000000000000000000000000000000000000000000000000000000000000000000000000000000000000000000000000000000000000000
310
0000000000000000000000000000000000000000000000000000000000000000000000000000000000000000000000F5000000000000000000000000F5000000000000000000000000000000000000000000000000000000000000000000000000000000000000000000000000000000000000000000000000000000000000
310
00000000000000000000000000000000000000000000000000000000000000000000000000000000000000000000000000000000000000000000000000000000000000000000000000000000000000000000000000000000000000000000000000000000000000000000000000000000000000000000000000000000000000
310
00000000000000000000000000000000000000000000000000000000000000000000000000000000000000000000000000F50000000000F5F50000000000F500000000000000000000000000000000000000000000000000000000000000000000000000000000000000000000000000000000000000000000000000000000
310
00000000000000000000000000000000000000000000000000000000000000000000000000000000000000000000000000000000000000000000000000000000000000000000000000000000000000000000000000000000000000000000000000000000000000000000000000000000000000000000000000000000000000
310
000000000000000000000000000000000000000000000000000000000000000000000000000000000000000000000000000000F50000000000F5F50000000000F50000000000000000000000000000000000000000000000000000000000000000000000000000000000000000000000000000000000000000000000000000
310
00000000000000000000000000000000000000000000000000000000000000000000000000000000000000000000000000000000000000000000000000000000000000000000000000000000000000000000000000000000000000000000000000000000000000000000000000000000000000000000000000000000000000
310
0000000000000000000000000000000000000000000000000000000000000000000000000000000000000000000000000000000000F5000000000000F50000000000F5000000000000000000000000000000000000000000000000000000000000000000000000000000000000000000000000000000000000000000000000
310
00000000000000000000000000000000000000000000000000000000000000000000000000000000000000000000000000000000000000000000000000000000000000000000000000000000000000000000000000000000000000000000000000000000000000000000000000000000000000000000000000000000000000
310
00000000000000000000000000000000000000000000000000000000000000000000000000000000000000000000000000000000000000F5F500000000000000000000F5F500000000000000000000000000000000000000000000000000000000000000000000000000000000000000000000000000000000000000000000
310
00000000000000000000000000000000000000000000000000000000000000000000000000000000000000000000000000000000000000000000000000000000000000000000000000000000000000000000000000000000000000000000000000000000000000000000000000000000000000000000000000000000000000
310
0000000000000000000000000000000000000000000000000000000000000000000000000000000000000000000000000000000000000000000000F5F5F5F5F5F5F5F5F5F5F5000000000000000000000000000000000000000000000000000000000000000000000000000000000000000000000000000000000000000000
310
00000000000000000000000000000000000000000000000000000000000000000000000000000000000000000000000000000000000000000000000000000000000000000000000000000000000000000000000000000000000000000000000000000000000000000000000000000000000000000000000000000000000000
310
00000000000000000000000000000000000000000000000000000000000000000000000000000000000000000000000000000000000000000000000000000000000000000000000000000000000000000000000000000000000000000000000000000000000000000000000000000000000000000000000000000000000000
310
00000000000000000000000000000000000000000000000000000000000000000000000000000000000000000000000000000000000000000000000000000000000000000000000000000000000000000000000000000000000000000000000000000000000000000000000000000000000000000000000000000000000000
310
00000000000000000000000000000000000000000000000000000000000000000000000000000000000000000000000000000000000000000000000000000000000000000000000000000000000000000000000000000000000000000000000000000000000000000000000000000000000000000000000000000000000000
310
00000000000000000000000000000000000000000000000000000000000000000000000000000000000000000000000000000000000000000000000000000000000000000000000000000000000000000000000000000000000000000000000000000000000000000000000000000000000000000000000000000000000000
310
00000000000000000000000000000000000000000000000000000000000000000000000000000000000000000000000000000000000000000000000000000000000000000000000000000000000000000000000000000000000000000000000000000000000000000000000000000000000000000000000000000000000000
310
00000000000000000000000000000000000000000000000000000000000000000000000000000000000000000000000000000000000000000000000000000000000000000000000000000000000000000000000000000000000000000000000000000000000000000000000000000000000000000000000000000000000000
310
00000000000000000000000000000000000000000000000000000000000000000000000000000000000000000000000000000000000000000000000000000000000000000000000000000000000000000000000000000000000000000000000000000000000000000000000000000000000000000000000000000000000000
310
00000000000000000000000000000000000000000000000000000000000000000000000000000000000000000000000000000000000000000000000000000000000000000000000000000000000000000000000000000000000000000000000000000000000000000000000000000000000000000000000000000000000000
310
00000000000000000000000000000000000000000000000000000000000000000000000000000000000000000000000000000000000000000000000000000000000000000000000000000000000000000000000000000000000000000000000000000000000000000000000000000000000000000000000000000000000000
310
00000000000000000000000000000000000000000000000000000000000000000000000000000000000000000000000000000000000000000000000000000000000000000000000000000000000000000000000000000000000000000000000000000000000000000000000000000000000000000000000000000000000000
310
00000000000000000000000000000000000000000000000000000000000000000000000000000000000000000000000000000000000000000000000000000000000000000000000000000000000000000000000000000000000000000000000000000000000000000000000000000000000000000000000000000000000000
310
00000000000000000000000000000000000000000000000000000000000000000000000000000000000000000000000000000000000000000000000000000000000000000000000000000000000000000000000000000000000000000000000000000000000000000000000000000000000000000000000000000000000000
310
00000000000000000000000000000000000000000000000000000000000000000000000000000000000000000000000000000000000000000000000000000000000000000000000000000000000000000000000000000000000000000000000000000000000000000000000000000000000000000000000000000000000000
310
00000000000000000000000000000000000000000000000000000000000000000000000000000000000000000000000000000000000000000000000000000000000000000000000000000000000000000000000000000000000000000000000000000000000000000000000000000000000000000000000000000000000000
310
00000000000000000000000000000000000000000000000000000000000000000000000000000000000000000000000000000000000000000000000000000000000000000000000000000000000000000000000000000000000000000000000000000000000000000000000000000000000000000000000000000000000000
310
00000000000000000000000000000000000000000000000000000000000000000000000000000000000000000000000000000000000000000000000000000000000000000000000000000000000000000000000000000000000000000000000000000000000000000000000000000000000000000000000000000000000000
310
00000000000000000000000000000000000000000000000000000000000000000000000000000000000000000000000000000000000000000000000000000000000000000000000000000000000000000000000000000000000000000000000000000000000000000000000000000000000000000000000000000000000000
310
00000000000000000000000000000000000000000000000000000000000000000000000000000000000000000000000000000000000000000000000000000000000000000000000000000000000000000000000000000000000000000000000000000000000000000000000000000000000000000000000000000000000000
310
00000000000000000000000000000000000000000000000000000000000000000000000000000000000000000000000000000000000000000000000000000000000000000000000000000000000000000000000000000000000000000000000000000000000000000000000000000000000000000000000000000000000000
310
00000000000000000000000000000000000000000000000000000000000000000000000000000000000000000000000000000000000000000000000000000000000000000000000000000000000000000000000000000000000000000000000000000000000000000000000000000000000000000000000000000000000000
310
00000000000000000000000000000000000000000000000000000000000000000000000000000000000000000000000000000000000000000000000000000000000000000000000000000000000000000000000000000000000000000000000000000000000000000000000000000000000000000000000000000000000000
310
00000000000000000000000000000000000000000000000000000000000000000000000000000000000000000000000000000000000000000000000000000000000000000000000000000000000000000000000000000000000000000000000000000000000000000000000000000000000000000000000000000000000000
310
00000000000000000000000000000000000000000000000000000000000000000000000000000000000000000000000000000000000000000000000000000000000000000000000000000000000000000000000000000000000000000000000000000000000000000000000000000000000000000000000000000000000000
310
00000000000000000000000000000000000000000000000000000000000000000000000000000000000000000000000000000000000000000000000000000000000000000000000000000000000000000000000000000000000000000000000000000000000000000000000000000000000000000000000000000000000000
310
00000000000000000000000000000000000000000000000000000000000000000000000000000000000000000000000000000000000000000000000000000000000000000000000000000000000000000000000000000000000000000000000000000000000000000000000000000000000000000000000000000000000000
310
00000000000000000000000000000000000000000000000000000000000000000000000000000000000000000000000000000000000000000000000000000000000000000000000000000000000000000000000000000000000000000000000000000000000000000000000000000000000000000000000000000000000000
310
00000000000000000000000000000000000000000000000000000000000000000000000000000000000000000000000000000000000000000000000000000000000000000000000000000000000000000000000000000000000000000000000000000000000000000000000000000000000000000000000000000000000000
310
00000000000000000000000000000000000000000000000000000000000000000000000000000000000000000000000000000000000000000000000000000000000000000000000000000000000000000000000000000000000000000000000000000000000000000000000000000000000000000000000000000000000000
310
00000000000000000000000000000000000000000000000000000000000000000000000000000000000000000000000000000000000000000000000000000000000000000000000000000000000000000000000000000000000000000000000000000000000000000000000000000000000000000000000000000000000000
310
00000000000000000000000000000000000000000000000000000000000000000000000000000000000000000000000000000000000000000000000000000000000000000000000000000000000000000000000000000000000000000000000000000000000000000000000000000000000000000000000000000000000000
310
00000000000000000000000000000000000000000000000000000000000000000000000000000000000000000000000000000000000000000000000000000000000000000000000000000000000000000000000000000000000000000000000000000000000000000000000000000000000000000000000000000000000000
310
00000000000000000000000000000000000000000000000000000000000000000000000000000000000000000000000000000000000000000000000000000000000000000000000000000000000000000000000000000000000000000000000000000000000000000000000000000000000000000000000000000000000000
310
00000000000000000000000000000000000000000000000000000000000000000000000000000000000000000000000000000000000000000000000000000000000000000000000000000000000000000000000000000000000000000000000000000000000000000000000000000000000000000000000000000000000000
310
00000000000000000000000000000000000000000000000000000000000000000000000000000000000000000000000000000000000000000000000000000000000000000000000000000000000000000000000000000000000000000000000000000000000000000000000000000000000000000000000000000000000000
310
00000000000000000000000000000000000000000000000000000000000000000000000000000000000000000000000000000000000000000000000000000000000000000000000000000000000000000000000000000000000000000000000000000000000000000000000000000000000000000000000000000000000000
310
00000000000000000000000000000000000000000000000000000000000000000000000000000000000000000000000000000000000000000000000000000000000000000000000000000000000000000000000000000000000000000000000000000000000000000000000000000000000000000000000000000000000000
310
00000000000000000000000000000000000000000000000000000000000000000000000000000000000000000000000000000000000000000000000000000000000000000000000000000000000000000000000000000000000000000000000000000000000000000000000000000000000000000000000000000000000000
310
00000000000000000000000000000000000000000000000000000000000000000000000000000000000000000000000000000000000000000000000000000000000000000000000000000000000000000000000000000000000000000000000000000000000000000000000000000000000000000000000000000000000000
310
000000000000000000000000000000000000000000000000000000000000000000000000000000000000000000000000000000000000000000000000000000000000000000000000000000000000000000000000000000000000000000F5F5F5F5F5F5F5F5F5F5F5F5F5F5F5F5F5F5F5F5F5F5F50000000000000000000000
310
00000000000000000000000000000000000000000000000000000000000000000000000000F5F5F5000000000000000000000000000000000000000000000000000000000000000000000000000000000000000000000000000000000000000000000000000000000000000000000000000000000000000000000000000000
310
000000000000000000000000000000000000000000000000000000000000000000000000000000000000000000000000000000000000000000000000000000000000000000000000000000000000000000000000000000000000000000F5F50000000000000000000000F500000000000000000000F5F50000000000000000
310
000000000000000000000000000000000000000000000000000000000000000000000000000000F5F5F500000000000000000000000000000000000000000000000000000000000000000000000000000000000000000000000000000000000000000000000000000000000000000000000000000000000000000000000000
310
00000000000000000000000000000000000000000000000000000000000000000000000000000000000000000000000000000000000000000000000000000000000000000000000000000000000000000000000000000000000000000000F5F5000000000000000000000000F5000000000000000000000000F5F500000000
310
0000000000000000000000000000000000000000000000000000000000000000000000000000000000F5F5F50000000000000000000000000000000000000000000000000000000000000000000000000000000000000000000000000000000000000000000000000000000000000000000000000000000000000000000000
310
0000000000000000000000000000000000000000000000000000000000000000000000000000000000000000000000000000000000000000000000000000000000000000000000000000000000000000000000000000000000000000000000F5F500000000000000000000000000F500000000000000000000000000F50000
310
000000000000000000000000000000000000000000000000000000000000000000000000000000000000F500F5F5000000000000000000000000000000000000000000000000000000000000000000000000000000000000000000000000000000000000000000000000000000000000000000000000000000000000000000
310
000000000000000000000000000000000000000000000000000000000000000000000000000000000000000000000000000000000000000000000000000000000000000000000000000000000000000000000000000000000000000000000000F5F50000000000000000000000000000F50000000000000000000000000000
310
F500000000000000000000000000000000000000000000000000000000000000000000000000000000000000F500F5F500000000000000000000000000000000000000000000000000000000000000000000000000000000000000000000000000000000000000000000000000000000000000000000000000000000000000
310
0000000000000000000000000000000000000000000000000000000000000000000000000000000000000000000000000000000000000000000000000000000000000000000000000000000000000000000000000000000000000000000000000000F5000000000000000000000000000000F5000000000000000000000000
310
0000F500000000000000000000000000000000000000000000000000000000000000000000000000000000000000F500F5F50000000000000000000000000000000000000000000000000000000000000000000000000000000000000000000000000000000000000000000000000000000000000000000000000000000000
310
00000000000000000000000000000000000000000000000000000000000000000000000000000000000000000000000000000000000000000000000000000000000000000000000000000000000000000000000000000000000000000000000000000000F5000000000000000000000000000000F500000000000000000000
310
0000000000F5000000000000000000000000000000000000000000000000000000000000000000000000000000000000F500F5F5000000000000000000000000000000000000000000000000000000000000000000000000000000000000000000000000000000000000000000000000000000000000000000000000000000
310
0000000000000000000000000000000000000000000000000000000000000000000000000000000000000000000000000000000000000000000000000000000000000000000000000000000000000000000000000000000000000000000000000000000000F5F5000000000000000000000000F5F5F5F5F5F5000000000000
310
00000000000000F5000000000000000000000000000000000000000000000000000000000000000000000000000000000000F500F5F500000000000000000000000000000000000000000000000000000000000000000000000000000000000000000000000000000000000000000000000000000000000000000000000000
310
00000000000000000000000000000000000000000000000000000000000000000000000000000000000000000000000000000000000000000000000000000000000000000000000000000000000000000000000000000000000000000000000000000000000000F50000000000000000000000F5F5F500000000F5F5F50000
310
000000000000000000F5000000000000000000000000000000000000000000000000000000000000000000000000000000000000F500F5F50000000000000000000000000000000000000000000000000000000000000000000000000000000000000000000000000000000000000000000000000000000000000000000000
310
000000000000000000000000000000000000000000000000000000000000000000000000000000000000000000000000000000000000000000000000000000000000000000000000000000000000000000000000000000000000000000000000000000000000000000F500000000000000000000F5F50000000000000000F5
310
F5F5000000000000000000F5000000000000000000000000000000000000000000000000000000000000000000000000000000000000F500F5F5000000000000000000000000000000000000000000000000000000000000000000000000000000000000000000000000000000000000000000000000000000000000000000
310
0000000000000000000000000000000000000000000000000000000000000000000000000000000000000000000000000000000000000000000000000000000000000000000000000000000000000000000000000000000000000000000000000000000000000000000000F5000000000000000000F5F50000F5F5F5F5F5F5
310
F50000F5F50000000000000000F5000000000000000000000000000000000000000000000000000000F5F5F5F5F5F5F5F5F5F5F5F5F5F5F5F500F5F500000000000000000000000000000000000000000000000000000000000000000000000000000000000000000000000000000000000000000000000000000000000000
310
00000000000000000000000000000000000000000000000000000000000000000000000000000000000000000000000000000000000000000000000000000000000000000000000000000000000000000000000000000000000000000000000000000000000000000000000000F50000000000000000F5F500F5F5F5000000
310
0000F5F50000F50000000000000000F50000000000000000000000000000000000000000000000000000F5F50000000000000000000000F50000F500F5F50000000000000000000000000000000000000000000000000000000000000000000000000000000000000000000000000000000000000000000000000000000000
310
000000000000000000000000000000000000000000000000000000000000000000000000000000000000000000000000000000000000000000000000000000000000000000000000000000000000000000000000000000000000000000000000000000000000000000000000000000F50000000000000000F50000F5F50000
310
0000000000F5F500F5F500000000000000F50000000000000000000000000000000000000000000000000000F5F50000000000000000000000F50000F500F5F5000000000000000000000000000000000000000000000000000000000000000000000000000000000000000000000000000000000000000000000000000000
310
0000000000000000000000000000000000000000000000000000000000000000000000000000000000000000000000000000000000000000000000000000000000000000000000000000000000000000000000000000000000000000000000000000000000000000000000000000000000F500000000000000F5F500F5F500
310
0000000000000000F50000F500000000000000F50000000000000000000000000000000000000000000000000000F5F50000000000000000000000F50000F500F5F500000000000000000000000000000000000000000000000000000000000000000000000000000000000000000000000000000000000000000000000000
310
00000000000000000000000000000000000000000000000000000000000000000000000000000000000000000000000000000000000000000000000000000000000000000000000000000000000000000000000000000000000000000000000000000000000000000000000000000000000000F500000000000000F50000F5
310
00000000000000000000F5F500F5F5000000000000F50000000000000000000000000000000000000000000000000000F5F50000000000000000000000F50000F500F5F50000000000000000000000000000000000000000000000000000000000000000000000000000000000000000000000000000000000000000000000
310
000000000000000000000000000000000000000000000000000000000000000000000000000000000000000000000000000000000000000000000000000000000000000000000000000000000000000000000000000000000000000000000000000000000000000000000000000000000000000000F500000000000000F500
310
F5F50000000000000000000000F500F5F5000000000000F50000000000000000000000000000000000000000000000000000F5F50000000000000000000000F50000F500F5F5000000000000000000000000000000000000000000000000000000000000000000000000000000000000000000000000000000000000000000
310
0000000000000000000000000000000000000000000000000000000000000000000000000000000000000000000000000000000000000000000000000000000000000000000000000000000000000000000000000000000000000000000000000000000000000000000000000000000000000000000000F5F5F5F5F5F5F5F5
310
F500F5F50000000000000000000000F500F5F5F5F5F5F5F5F5F50000000000000000000000000000000000000000000000000000F5F50000000000000000000000F50000F5F5F5F500000000000000000000000000000000000000000000000000000000000000000000000000000000000000000000000000000000000000
310
00000000000000000000000000000000000000000000000000000000000000000000000000000000000000000000000000000000000000000000000000000000000000000000000000000000000000000000000000000000000000000000000000000000000000000000000000000000000000000000000000F50000000000
310
0000F50000F50000000000000000000000F500F5F5000000000000F50000000000000000000000000000000000000000000000000000F5F50000000000000000000000F50000F500F5F50000000000000000000000000000000000000000000000000000000000000000000000000000000000000000000000000000000000
310
000000000000000000000000000000000000000000000000000000000000000000000000000000000000000000000000000000000000000000000000000000000000000000000000000000000000000000000000000000000000000000000000000000000000000000000000000000000000000000000000000000F5000000
310
00000000F50000F500000000000000000000F5F500F500000000000000F50000000000000000000000000000000000000000000000000000F5F50000000000000000000000F50000F500F5F5000000000000000000000000000000000000000000000000000000000000000000000000000000000000000000000000000000
310
0000000000000000000000000000000000000000000000000000000000000000000000000000000000000000000000000000000000000000000000000000000000000000000000000000000000000000000000000000000000000000000000000000000000000000000000000000000000000000000000000000000000F500
310
000000000000F5F500F5F5000000000000000000F50000F500000000000000F50000000000000000000000000000000000000000000000000000F5F50000000000000000000000F50000F500F5F500000000000000000000000000000000000000000000000000000000000000000000000000000000000000000000000000
310
00000000000000000000000000000000000000000000000000000000000000000000000000000000000000000000000000000000000000000000000000000000000000000000000000000000000000000000000000000000000000000000000000000000000000000000000000000000000000000000000000000000000000
310
F50000000000000000F50000F5F500000000000000F5F500F5F500000000000000F50000000000000000000000000000000000000000000000000000F5F50000000000000000000000F50000F500F5F50000000000000000000000000000000000000000000000000000000000000000000000000000000000000000000000
310
00000000000000000000000000000000000000000000000000000000000000000000000000000000000000000000000000000000000000000000000000000000000000000000000000000000000000000000000000000000000000000000000000000000000000000000000000000000000000000000000000000000000000
310
0000F50000000000000000F5F500F5F5F5F50000F5F5F5F50000F50000000000000000F50000000000000000000000000000000000000000000000000000F5F50000000000000000000000F50000F500F5F5000000000000000000000000000000000000000000000000000000000000000000000000000000000000000000
310
00000000000000000000000000000000000000000000000000000000000000000000000000000000000000000000000000000000000000000000000000000000000000000000000000000000000000000000000000000000000000000000000000000000000000000000000000000000000000000000000000000000000000
310
00000000F5000000000000000000F5F50000F5F5F5F5F5F5F50000F5F50000000000000000F5000000000000000000000000000000000000000000000000000000F5F5F5F5F5F5F5F5F5F5F5F5F5F5F5F500F5F500000000000000000000000000000000000000000000000000000000000000000000000000000000000000
310
00000000000000000000000000000000000000000000000000000000000000000000000000000000000000000000000000000000000000000000000000000000000000000000000000000000000000000000000000000000000000000000000000000000000000000000000000000000000000000000000000000000000000
310
000000000000F500000000000000000000F5F5000000F500F50000F5F5F5000000000000000000F50000000000000000000000000000000000000000000000000000000000F500000000F500000000000000F500F5F50000000000000000000000000000000000000000000000000000000000000000000000000000000000
310
00000000000000000000000000000000000000000000000000000000000000000000000000000000000000000000000000000000000000000000000000000000000000000000000000000000000000000000000000000000000000000000000000000000000000000000000000000000000000000000000000000000000000
310
0000000000000000F50000000000000000000000F5F5F5F5F500F5F5F5F50000000000000000000000F50000000000000000000000000000000000000000000000000000000000F500000000F500000000000000F500F5F5000000000000000000000000000000000000000000000000000000000000000000000000000000
310
00000000000000000000000000000000000000000000000000000000000000000000000000000000000000000000000000000000000000000000000000000000000000000000000000000000000000000000000000000000000000000000000000000000000000000000000000000000000000000000000000000000000000
310
0000000000000000000000F500000000000000000000000000F5F500F5F500000000000000000000000000F50000000000000000000000000000000000000000000000000000000000F500000000F500000000000000F5F5F5F500000000000000000000000000000000000000000000000000000000000000000000000000
310
00000000000000000000000000000000000000000000000000000000000000000000000000000000000000000000000000000000000000000000000000000000000000000000000000000000000000000000000000000000000000000000000000000000000000000000000000000000000000000000000000000000000000
310
00000000000000000000000000F50000000000000000000000000000F500F50000000000000000000000000000F50000000000000000000000000000000000000000000000000000000000F500000000F500000000000000F500F5F50000000000000000000000000000000000000000000000000000000000000000000000
310
00000000000000000000000000000000000000000000000000000000000000000000000000000000000000000000000000000000000000000000000000000000000000000000000000000000000000000000000000000000000000000000000000000000000000000000000000000000000000000000000000000000000000
310
000000000000000000000000000000F50000000000000000000000000000F5F5F500000000000000000000000000F5000000000000000000000000000000000000000000000000000000000000F5F50000F5F500000000000000F500F5F5000000000000000000000000000000000000000000000000000000000000000000
310
00000000000000000000000000000000000000000000000000000000000000000000000000000000000000000000000000000000000000000000000000000000000000000000000000000000000000000000000000000000000000000000000000000000000000000000000000000000000000000000000000000000000000
310
000000000000000000000000000000000000F50000000000000000000000000000F500000000000000000000000000F5F500000000000000000000000000000000000000000000000000000000000000F5F5F5F50000000000000000F500F5F500000000000000000000000000000000000000000000000000000000000000
310
00000000000000000000000000000000000000000000000000000000000000000000000000000000000000000000000000000000000000000000000000000000000000000000000000000000000000000000000000000000000000000000000000000000000000000000000000000000000000000000000000000000000000
310
0000000000000000000000000000000000000000F5F500000000000000000000000000F500000000000000000000000000F50000000000000000000000000000000000000000000000000000000000000000000000000000000000000000F500F5F50000000000000000000000000000000000000000000000000000000000
310
00000000000000000000000000000000000000000000000000000000000000000000000000000000000000000000000000000000000000000000000000000000000000000000000000000000000000000000000000000000000000000000000000000000000000000000000000000000000000000000000000000000000000
310
0000000000000000000000000000000000000000000000F5F5000000000000000000000000F50000000000000000000000F5F5F5000000000000000000000000000000000000000000000000000000000000000000000000000000000000000000F5F5F5000000000000000000000000000000000000000000000000000000
310
00000000000000000000000000000000000000000000000000000000000000000000000000000000000000000000000000000000000000000000000000000000000000000000000000000000000000000000000000000000000000000000000000000000000000000000000000000000000000000000000000000000000000
310
0000000000000000000000000000000000000000000000000000F5F5F500000000000000000000F500000000000000000000F5F50000000000000000000000000000000000000000000000000000000000000000000000000000000000000000000000F5F5F500000000000000000000000000000000000000000000000000
310
00000000000000000000000000000000000000000000000000000000000000000000000000000000000000000000000000000000000000000000000000000000000000000000000000000000000000000000000000000000000000000000000000000000000000000000000000000000000000000000000000000000000000
310
000000000000000000000000000000000000000000000000000000000000F5F5F5F5F5F5F5F5F5F5F5F5F5F5F5F5F5F5F5F5F5F500000000000000000000000000000000000000000000000000000000000000000000000000000000000000000000000000F5F5F50000000000000000000000000000000000000000000000
310
00000000000000000000000000000000000000000000000000000000000000000000000000000000000000000000000000000000000000000000000000000000000000000000000000000000000000000000000000000000000000000000000000000000000000000000000000000000000000000000000000000000000000
310
00000000000000000000000000000000000000000000000000000000000000000000000000000000000000000000000000000000000000000000000000000000000000000000000000000000000000000000000000000000000000000000000000000000000000000000000000000000000000000000000000000000000000
310
00000000000000000000000000000000000000000000000000000000000000000000000000000000000000000000000000000000000000000000000000000000000000000000000000000000000000000000000000000000000000000000000000000000000000000000000000000000000000000000000000000000000000
310
00000000000000000000000000000000000000000000000000000000000000000000000000000000000000000000000000000000000000000000000000000000000000000000000000000000000000000000000000000000000000000000000000000000000000000000000000000000000000000000000000000000000000
310
00000000000000000000000000000000000000000000000000000000000000000000000000000000000000000000000000000000000000000000000000000000000000000000000000000000000000000000000000000000000000000000000000000000000000000000000000000000000000000000000000000000000000
310
00000000000000000000000000000000000000000000000000000000000000000000000000000000000000000000000000000000000000000000000000000000000000000000000000000000000000000000000000000000000000000000000000000000000000000000000000000000000000000000000000000000000000
310
00000000000000000000000000000000000000000000000000000000000000000000000000000000000000000000000000000000000000000000000000000000000000000000000000000000000000000000000000000000000000000000000000000000000000000000000000000000000000000000000000000000000000
310
00000000000000000000000000000000000000000000000000000000000000000000000000000000000000000000000000000000000000000000000000000000000000000000000000000000000000000000000000000000000000000000000000000000000000000000000000000000000000000000000000000000000000
310
00000000000000000000000000000000000000000000000000000000000000000000000000000000000000000000000000000000000000000000000000000000000000000000000000000000000000000000000000000000000000000000000000000000000000000000000000000000000000000000000000000000000000
310
00000000000000000000000000000000000000000000000000000000000000000000000000000000000000000000000000000000000000000000000000000000000000000000000000000000000000000000000000000000000000000000000000000000000000000000000000000000000000000000000000000000000000
310
00000000000000000000000000000000000000000000000000000000000000000000000000000000000000000000000000000000000000000000000000000000000000000000000000000000000000000000000000000000000000000000000000000000000000000000000000000000000000000000000000000000000000
310
00000000000000000000000000000000000000000000000000000000000000000000000000000000000000000000000000000000000000000000000000000000000000000000000000000000000000000000000000000000000000000000000000000000000000000000000000000000000000000000000000000000000000
310
00000000000000000000000000000000000000000000000000000000000000000000000000000000000000000000000000000000000000000000000000000000000000000000000000000000000000000000000000000000000000000000000000000000000000000000000000000000000000000000000000000000000000
310
00000000000000000000000000000000000000000000000000000000000000000000000000000000000000000000000000000000000000000000000000000000000000000000000000000000000000000000000000000000000000000000000000000000000000000000000000000000000000000000000000000000000000
310
00000000000000000000000000000000000000000000000000000000000000000000000000000000000000000000000000000000000000000000000000000000000000000000000000000000000000000000000000000000000000000000000000000000000000000000000000000000000000000000000000000000000000
310
00000000000000000000000000000000000000000000000000000000000000000000000000000000000000000000000000000000000000000000000000000000000000000000000000000000000000000000000000000000000000000000000000000000000000000000000000000000000000000000000000000000000000
310
00000000000000000000000000000000000000000000000000000000000000000000000000000000000000000000000000000000000000000000000000000000000000000000000000000000000000000000000000000000000000000000000000000000000000000000000000000000000000000000000000000000000000
310
00000000000000000000000000000000000000000000000000000000000000000000000000000000000000000000000000000000000000000000000000000000000000000000000000000000000000000000000000000000000000000000000000000000000000000000000000000000000000000000000000000000000000
310
00000000000000000000000000000000000000000000000000000000000000000000000000000000000000000000000000000000000000000000000000000000000000000000000000000000000000000000000000000000000000000000000000000000000000000000000000000000000000000000000000000000000000
310
00000000000000000000000000000000000000000000000000000000000000000000000000000000000000000000000000000000000000000000000000000000000000000000000000000000000000000000000000000000000000000000000000000000000000000000000000000000000000000000000000000000000000
310
00000000000000000000000000000000000000000000000000000000000000000000000000000000000000000000000000000000000000000000000000000000000000000000000000000000000000000000000000000000000000000000000000000000000000000000000000000000000000000000000000000000000000
310
00000000000000000000000000000000000000000000000000000000000000000000000000000000000000000000000000000000000000000000000000000000000000000000000000000000000000000000000000000000000000000000000000000000000000000000000000000000000000000000000000000000000000
310
00000000000000000000000000000000000000000000000000000000000000000000000000000000000000000000000000000000000000000000000000000000000000000000000000000000000000000000000000000000000000000000000000000000000000000000000000000000000000000000000000000000000000
310
00000000000000000000000000000000000000000000000000000000000000000000000000000000000000000000000000000000000000000000000000000000000000000000000000000000000000000000000000000000000000000000000000000000000000000000000000000000000000000000000000000000000000
310
00000000000000000000000000000000000000000000000000000000000000000000000000000000000000000000000000000000000000000000000000000000000000000000000000000000000000000000000000000000000000000000000000000000000000000000000000000000000000000000000000000000000000
310
00000000000000000000000000000000000000000000000000000000000000000000000000000000000000000000000000000000000000000000000000000000000000000000000000000000000000000000000000000000000000000000000000000000000000000000000000000000000000000000000000000000000000
310
00000000000000000000000000000000000000000000000000000000000000000000000000000000000000000000000000000000000000000000000000000000000000000000000000000000000000000000000000000000000000000000000000000000000000000000000000000000000000000000000000000000000000
310
00000000000000000000000000000000000000000000000000000000000000000000000000000000000000000000000000000000000000000000000000000000000000000000000000000000000000000000000000000000000000000000000000000000000000000000000000000000000000000000000000000000000000
310
00000000000000000000000000000000000000000000000000000000000000000000000000000000000000000000000000000000000000000000000000000000000000000000000000000000000000000000000000000000000000000000000000000000000000000000000000000000000000000000000000000000000000
310
00000000000000000000000000000000000000000000000000000000000000000000000000000000000000000000000000000000000000000000000000000000000000000000000000000000000000000000000000000000000000000000000000000000000000000000000000000000000000000000000000000000000000
310
00000000000000000000000000000000000000000000000000000000000000000000000000000000000000000000000000000000000000000000000000000000000000000000000000000000000000000000000000000000000000000000000000000000000000000000000000000000000000000000000000000000000000
310
00000000000000000000000000000000000000000000000000000000000000000000000000000000000000000000000000000000000000000000000000000000000000000000000000000000000000000000000000000000000000000000000000000000000000000000000000000000000000000000000000000000000000
310
00000000000000000000000000000000000000000000000000000000000000000000000000000000000000000000000000000000000000000000000000000000000000000000000000000000000000000000000000000000000000000000000000000000000000000000000000000000000000000000000000000000000000
310
00000000000000000000000000000000000000000000000000000000000000000000000000000000000000000000000000000000000000000000000000000000000000000000000000000000000000000000000000000000000000000000000000000000000000000000000000000000000000000000000000000000000000
310
00000000000000000000000000000000000000000000000000000000000000000000000000000000000000000000000000000000000000000000000000000000000000000000000000000000000000000000000000000000000000000000000000000000000000000000000000000000000000000000000000000000000000
310
00000000000000000000000000000000000000000000000000000000000000000000000000000000000000000000000000000000000000000000000000000000000000000000000000000000000000000000000000000000000000000000000000000000000000000000000000000000000000000000000000000000000000
310
00000000000000000000000000000000000000000000000000000000000000000000000000000000000000000000000000000000000000000000000000000000000000000000000000000000000000000000000000000000000000000000000000000000000000000000000000000000000000000000000000000000000000
310
00000000000000000000000000000000000000000000000000000000000000000000000000000000000000000000000000000000000000000000000000000000000000000000000000F5F5F5F5F5F5F5F5F5F5F5F5000000000000000000000000000000000000000000000000000000000000000000000000000000000000
310
00000000000000000000000000000000000000000000000000000000000000000000000000000000000000000000000000000000000000000000000000000000000000000000000000000000000000000000000000000000000000000000000000000000000000000000000000000000000000000000000000000000000000
310
0000000000000000000000000000000000000000000000000000000000000000000000000000000000000000000000000000000000000000000000000000000000000000000000000000F5F500000000000000000000F5F5000000000000000000000000000000000000000000000000000000000000000000000000000000
310
00000000000000000000000000000000000000000000000000000000000000000000000000000000000000000000000000000000000000000000000000000000000000000000000000000000000000000000000000000000000000000000000000000000000000000000000000000000000000000000000000000000000000
310
00000000000000000000000000000000000000000000000000000000000000000000000000000000000000000000000000000000000000000000000000000000000000000000000000000000F5000000000000000000000000F500000000000000000000000000000000000000000000000000000000000000000000000000
310
00000000000000000000000000000000000000000000000000000000000000000000000000000000000000000000000000000000000000000000000000000000000000000000000000000000000000000000000000000000000000000000000000000000000000000000000000000000000000000000000000000000000000
310
000000000000000000000000000000000000000000000000000000000000000000000000000000000000000000000000000000000000000000000000000000000000000000000000000000000000F50000000000F5F5F500000000F50000000000000000000000000000000000000000000000000000000000000000000000
310
00000000000000000000000000000000000000000000000000000000000000000000000000000000000000000000000000000000000000000000000000000000000000000000000000000000000000000000000000000000000000000000000000000000000000000000000000000000000000000000000000000000000000
310
0000000000000000000000000000000000000000000000000000000000000000000000000000000000000000000000000000000000000000000000000000000000000000000000000000000000000000F50000000000F500F500000000F5000000000000000000000000000000000000000000000000000000000000000000
310
00000000000000000000000000000000000000000000000000000000000000000000000000000000000000000000000000000000000000000000000000000000000000000000000000000000000000000000000000000000000000000000000000000000000000000000000000000000000000000000000000000000000000
310
00000000000000000000000000000000000000000000000000000000000000000000000000000000000000000000000000000000000000000000000000000000000000000000000000000000000000000000F50000000000F500F500000000F500000000000000000000000000000000000000000000000000000000000000
310
00000000000000000000000000000000000000000000000000000000000000000000000000000000000000000000000000000000000000000000000000000000000000000000000000000000000000000000000000000000000000000000000000000000000000000000000000000000000000000000000000000000000000
310
000000000000000000000000000000000000000000000000000000000000000000000000000000000000000000000000000000000000000000000000000000000000000000000000000000000000000000000000F50000000000F500F500000000F50000000000000000000000000000000000000000000000000000000000
310
00000000000000000000000000000000000000000000000000000000000000000000000000000000000000000000000000000000000000000000000000000000000000000000000000000000000000000000000000000000000000000000000000000000000000000000000000000000000000000000000000000000000000
310
0000000000000000000000000000000000000000000000000000000000000000000000000000000000000000000000000000000000000000000000000000000000000000000000000000000000000000000000000000F50000000000F500F500000000F5000000000000000000000000000000000000000000000000000000
310
00000000000000000000000000000000000000000000000000000000000000000000000000000000000000000000000000000000000000000000000000000000000000000000000000000000000000000000000000000000000000000000000000000000000000000000000000000000000000000000000000000000000000
310
00000000000000000000000000000000000000000000000000000000000000000000000000000000000000000000000000000000000000000000000000000000000000000000000000000000000000000000000000000000F50000000000F5F5F500000000F500000000000000000000000000000000000000000000000000
310
00000000000000000000000000000000000000000000000000000000000000000000000000000000000000000000000000000000000000000000000000000000000000000000000000000000000000000000000000000000000000000000000000000000000000000000000000000000000000000000000000000000000000
310
000000000000000000000000000000000000000000000000000000000000000000000000000000000000000000000000000000000000000000000000000000000000000000000000000000000000000000000000000000000000F5000000000000000000000000F50000000000000000000000000000000000000000000000
310
00000000000000000000000000000000000000000000000000000000000000000000000000000000000000000000000000000000000000000000000000000000000000000000000000000000000000000000000000000000000000000000000000000000000000000000000000000000000000000000000000000000000000
310
0000000000000000000000000000000000000000000000000000000000000000000000000000000000000000000000000000000000000000000000000000000000000000000000000000000000000000000000000000000000000000F5000000000000000000000000F5000000000000000000000000000000000000000000
310
00000000000000000000000000000000000000000000000000000000000000000000000000000000000000000000000000000000000000000000000000000000000000000000000000000000000000000000000000000000000000000000000000000000000000000000000000000000000000000000000000000000000000
310
00000000000000000000000000000000000000000000000000000000000000000000000000000000000000000000000000000000000000000000000000000000000000000000000000000000000000000000000000000000000000000000F5000000000000000000000000F500000000000000000000000000000000000000
310
00000000000000000000000000000000000000000000000000000000000000000000000000000000000000000000000000000000000000000000000000000000000000000000000000000000000000000000000000000000000000000000000000000000000000000000000000000000000000000000000000000000000000
310
000000000000000000000000000000000000000000000000000000000000000000000000000000000000000000000000000000000000000000000000000000000000000000000000000000000000000000000000000000000000000000000000F5F5F5F5F5F5F5F5F5F5F5F5F5F50000000000000000000000000000000000
310
00000000000000000000000000000000000000000000000000000000000000000000000000000000000000000000000000000000000000000000000000000000000000000000000000000000000000000000000000000000000000000000000000000000000000000000000000000000000000000000000000000000000000
310
0000000000000000000000000000000000000000000000000000000000000000000000000000000000000000000000000000000000000000000000000000000000000000000000000000000000000000000000000000000000000000000000000000F5F5F5F5F5F5F5F5F5F5F5F5F5F5000000000000000000000000000000
310
00000000000000000000000000000000000000000000000000000000000000000000000000000000000000000000000000000000000000000000000000000000000000000000000000000000000000000000000000000000000000000000000000000000000000000000000000000000000000000000000000000000000000
310
00000000000000000000000000000000000000000000000000000000000000000000000000000000000000000000000000000000000000000000000000000000000000000000000000000000000000000000000000000000000000000000000000000000F5000000000000000000000000F500000000000000000000000000
310
00000000000000000000000000000000000000000000000000000000000000000000000000000000000000000000000000000000000000000000000000000000000000000000000000000000000000000000000000000000000000000000000000000000000000000000000000000000000000000000000000000000000000
310
000000000000000000000000000000000000000000000000000000000000000000000000000000000000000000000000000000000000000000000000000000000000000000000000000000000000000000000000000000000000000000000000000000000000F5000000000000000000000000F50000000000000000000000
310
00000000000000000000000000000000000000000000000000000000000000000000000000000000000000000000000000000000000000000000000000000000000000000000000000000000000000000000000000000000000000000000000000000000000000000000000000000000000000000000000000000000000000
310
000000000000000000000000000000000000000000000000000000000000000000000000000000000000000000000000000000000000000000000000000000000000000000000000000000000000000000000000000000000000000000000000F5F5F5F5F5F5F5F5F5F5F5F5F5F5F5F5F5F5F5F5F5F5F5F5F5F5F5F5F5F500
310
00000000000000000000000000000000000000000000000000000000000000000000000000000000000000000000000000000000000000000000000000000000000000000000000000000000000000000000000000000000000000000000000000000000000000000000000000000000000000000000000000000000000000
310
000000000000000000000000000000000000000000000000000000000000000000000000000000000000000000000000000000000000000000000000000000000000000000000000000000000000000000000000000000000000000000000000F5F5F5F5F5F5F5F5F5F5F5F5F5F5F5F5F5F5F5F5F5F5F5F5F5F5F5F5F5F5F5
310
F5F5F500000000000000000000000000000000000000000000000000000000000000000000000000000000000000000000000000000000000000000000000000000000000000000000000000000000000000000000000000000000000000000000000000000000000000000000000000000000000000000000000000000000
310
0000000000000000000000000000000000000000000000000000000000000000000000000000000000000000000000000000000000000000000000000000000000000000000000000000000000000000000000000000000000000000000000000000F5F5F5F5F5F5F5F5F5F5F5F5F5F5F5F5F5F5F5F5F5F5F5F5F5F5F5F5F5
310
F5F5F5F5F50000000000000000000000000000000000000000000000000000000000000000000000000000000000000000000000000000000000000000000000000000000000000000000000000000000000000000000000000000000000000000000000000000000000000000000000000000000000000000000000000000
310
00000000000000000000000000000000000000000000000000000000000000000000000000000000000000000000000000000000000000000000000000000000000000000000000000000000000000000000000000000000000000000000000000000000000000000000000000000000000000000000000000000000000000
310
00000000000000000000000000000000000000000000000000000000000000000000000000000000000000000000000000000000000000000000000000000000000000000000000000000000000000000000000000000000000000000000000000000000000000000000000000000000000000000000000000000000000000
310
0000000000000000000000000000
  0
XRECORD
  5
440
102
{ACAD_REACTORS
330
369
102
}
330
369
100
AcDbXrecord
280
     1
102
MATERIAL
148
0.0
149
0.0
149
0.0
 93
        0
 94
      127
282
     0
 72
     0
 77
     0
171
     0
175
     0
179
     0
273
     0
  0
XRECORD
  5
36B
102
{ACAD_REACTORS
330
369
102
}
330
369
100
AcDbXrecord
280
     1
270
     1
271
     1
  0
XRECORD
  5
36A
102
{ACAD_REACTORS
330
369
102
}
330
369
100
AcDbXrecord
280
     1
270
     1
271
     1
  0
XRECORD
  5
36E
102
{ACAD_REACTORS
330
369
102
}
330
369
100
AcDbXrecord
280
     1
270
     1
271
     1
  0
XRECORD
  5
36D
102
{ACAD_REACTORS
330
369
102
}
330
369
100
AcDbXrecord
280
     1
270
     1
271
     1
  0
XRECORD
  5
36F
102
{ACAD_REACTORS
330
369
102
}
330
369
100
AcDbXrecord
280
     1
270
     1
271
     1
  0
XRECORD
  5
36C
102
{ACAD_REACTORS
330
369
102
}
330
369
100
AcDbXrecord
280
     1
270
     1
271
     1
  0
XRECORD
  5
43F
102
{ACAD_REACTORS
330
361
102
}
330
361
100
AcDbXrecord
280
     1
102
MATERIAL
148
0.0
149
0.0
149
0.0
 93
        0
 94
      127
282
     0
 72
     0
 77
     0
171
     0
175
     0
179
     0
273
     0
  0
XRECORD
  5
363
102
{ACAD_REACTORS
330
361
102
}
330
361
100
AcDbXrecord
280
     1
270
     1
271
     1
  0
XRECORD
  5
362
102
{ACAD_REACTORS
330
361
102
}
330
361
100
AcDbXrecord
280
     1
270
     1
271
     1
  0
XRECORD
  5
366
102
{ACAD_REACTORS
330
361
102
}
330
361
100
AcDbXrecord
280
     1
270
     1
271
     1
  0
XRECORD
  5
365
102
{ACAD_REACTORS
330
361
102
}
330
361
100
AcDbXrecord
280
     1
270
     1
271
     1
  0
XRECORD
  5
367
102
{ACAD_REACTORS
330
361
102
}
330
361
100
AcDbXrecord
280
     1
270
     1
271
     1
  0
XRECORD
  5
364
102
{ACAD_REACTORS
330
361
102
}
330
361
100
AcDbXrecord
280
     1
270
     1
271
     1
  0
XRECORD
  5
441
102
{ACAD_REACTORS
330
371
102
}
330
371
100
AcDbXrecord
280
     1
102
MATERIAL
148
0.0
149
0.0
149
0.0
 93
        0
 94
      127
282
     0
 72
     0
 77
     0
171
     0
175
     0
179
     0
273
     0
  0
XRECORD
  5
373
102
{ACAD_REACTORS
330
371
102
}
330
371
100
AcDbXrecord
280
     1
270
     1
271
     1
  0
XRECORD
  5
372
102
{ACAD_REACTORS
330
371
102
}
330
371
100
AcDbXrecord
280
     1
270
     1
271
     1
  0
XRECORD
  5
376
102
{ACAD_REACTORS
330
371
102
}
330
371
100
AcDbXrecord
280
     1
270
     1
271
     1
  0
XRECORD
  5
375
102
{ACAD_REACTORS
330
371
102
}
330
371
100
AcDbXrecord
280
     1
270
     1
271
     1
  0
XRECORD
  5
377
102
{ACAD_REACTORS
330
371
102
}
330
371
100
AcDbXrecord
280
     1
270
     1
271
     1
  0
XRECORD
  5
374
102
{ACAD_REACTORS
330
371
102
}
330
371
100
AcDbXrecord
280
     1
270
     1
271
     1
  0
XRECORD
  5
43D
102
{ACAD_REACTORS
330
43C
102
}
330
43C
100
AcDbXrecord
280
     1
102
ACAD_ROUNDTRIP_2012_MLEADER_STYLE
298
     1
  0
CELLSTYLEMAP
  5
43B
102
{ACAD_REACTORS
330
3F5
102
}
330
3F5
100
AcDbCellStyleMap
 90
        3
300
CELLSTYLE
  1
TABLEFORMAT_BEGIN
 90
        5
170
     1
 91
        0
 92
    32768
 62
   257
 93
        1
300
CONTENTFORMAT
  1
CONTENTFORMAT_BEGIN
 90
        0
 91
        0
 92
      512
 93
        0
300

 40
0.0
140
1.0
 94
        5
 62
     0
340
11
144
0.25
309
CONTENTFORMAT_END
171
     0
 94
        0
309
TABLEFORMAT_END
  1
CELLSTYLE_BEGIN
 90
        1
 91
        1
300
_TITLE
309
CELLSTYLE_END
300
CELLSTYLE
  1
TABLEFORMAT_BEGIN
 90
        5
170
     1
 91
        0
 92
        0
 62
   257
 93
        1
300
CONTENTFORMAT
  1
CONTENTFORMAT_BEGIN
 90
        0
 91
        0
 92
      512
 93
        0
300

 40
0.0
140
1.0
 94
        5
 62
     0
340
11
144
0.18
309
CONTENTFORMAT_END
171
     0
 94
        0
309
TABLEFORMAT_END
  1
CELLSTYLE_BEGIN
 90
        2
 91
        1
300
_HEADER
309
CELLSTYLE_END
300
CELLSTYLE
  1
TABLEFORMAT_BEGIN
 90
        5
170
     1
 91
        0
 92
        0
 62
   257
 93
        1
300
CONTENTFORMAT
  1
CONTENTFORMAT_BEGIN
 90
        0
 91
        0
 92
      512
 93
        0
300

 40
0.0
140
1.0
 94
        2
 62
     0
340
11
144
0.18
309
CONTENTFORMAT_END
171
     0
 94
        0
309
TABLEFORMAT_END
  1
CELLSTYLE_BEGIN
 90
        3
 91
        2
300
_DATA
309
CELLSTYLE_END
  0
XRECORD
  5
472
102
{ACAD_REACTORS
330
3F5
102
}
330
3F5
100
AcDbXrecord
280
     1
102
ACAD_ROUNDTRIP_PRE2007_TABLESTYLE
 90
      512
 91
        0
  1

 92
      512
 93
        0
  2

 94
      512
 95
        0
  3

  0
XRECORD
  5
44D
102
{ACAD_REACTORS
330
44C
102
}
330
44C
100
AcDbXrecord
280
     1
102
RTVSPropertyOp0
 70
     1
102
RTVSPropertyOp1
 70
     1
102
RTVSPropertyOp2
 70
     1
102
RTVSPropertyOp3
 70
     1
102
RTVSPropertyOp4
 70
     1
102
RTVSPropertyOp5
 70
     1
102
RTVSPropertyOp6
 70
     1
102
RTVSPropertyOp7
 70
     1
102
RTVSPropertyOp8
 70
     1
102
RTVSPropertyOp9
 70
     1
102
RTVSPropertyOp10
 70
     1
102
RTVSPropertyOp11
 70
     1
102
RTVSPropertyOp12
 70
     1
102
RTVSPropertyOp13
 70
     1
102
RTVSPropertyOp14
 70
     1
102
RTVSPropertyOp15
 70
     1
102
RTVSPropertyOp16
 70
     1
102
RTVSPropertyOp17
 70
     1
102
RTVSPropertyOp18
 70
     1
102
RTVSPropertyOp19
 70
     1
102
RTVSPropertyOp20
 70
     1
102
RTVSPropertyOp21
 70
     1
102
RTVSPropertyOp22
 70
     1
102
RTVSPropertyOp23
 70
     1
102
RTVSPropertyOp24
 70
     1
102
RTVSPropertyOp25
 70
     1
102
RTVSPropertyOp26
 70
     1
102
RTVSPropertyOp27
 70
     1
102
RTVSPropertyOp28
 70
     1
102
RTVSPropertyOp29
 70
     1
102
RTVSPropertyOp30
 70
     1
102
RTVSPropertyOp31
 70
     1
102
RTVSPropertyOp32
 70
     1
  0
XRECORD
  5
44B
102
{ACAD_REACTORS
330
44A
102
}
330
44A
100
AcDbXrecord
280
     1
102
RTVSPropertyOp0
 70
     1
102
RTVSPropertyOp1
 70
     1
102
RTVSPropertyOp2
 70
     1
102
RTVSPropertyOp3
 70
     1
102
RTVSPropertyOp4
 70
     1
102
RTVSPropertyOp5
 70
     1
102
RTVSPropertyOp6
 70
     1
102
RTVSPropertyOp7
 70
     1
102
RTVSPropertyOp8
 70
     1
102
RTVSPropertyOp9
 70
     1
102
RTVSPropertyOp10
 70
     1
102
RTVSPropertyOp11
 70
     1
102
RTVSPropertyOp12
 70
     1
102
RTVSPropertyOp13
 70
     1
102
RTVSPropertyOp14
 70
     1
102
RTVSPropertyOp15
 70
     1
102
RTVSPropertyOp16
 70
     1
102
RTVSPropertyOp17
 70
     1
102
RTVSPropertyOp18
 70
     1
102
RTVSPropertyOp19
 70
     1
102
RTVSPropertyOp20
 70
     1
102
RTVSPropertyOp21
 70
     1
102
RTVSPropertyOp22
 70
     1
102
RTVSPropertyOp23
 70
     1
102
RTVSPropertyOp24
 70
     1
102
RTVSPropertyOp25
 70
     1
102
RTVSPropertyOp26
 70
     1
102
RTVSPropertyOp27
 70
     1
102
RTVSPropertyOp28
 70
     1
102
RTVSPropertyOp29
 70
     1
102
RTVSPropertyOp30
 70
     1
102
RTVSPropertyOp31
 70
     1
102
RTVSPropertyOp32
 70
     1
  0
XRECORD
  5
459
102
{ACAD_REACTORS
330
458
102
}
330
458
100
AcDbXrecord
280
     1
102
RTVSPropertyOp0
 70
     1
102
RTVSPropertyOp1
 70
     1
102
RTVSPropertyOp2
 70
     1
102
RTVSPropertyOp3
 70
     1
102
RTVSPropertyOp4
 70
     1
102
RTVSPropertyOp5
 70
     1
102
RTVSPropertyOp6
 70
     1
102
RTVSPropertyOp7
 70
     1
102
RTVSPropertyOp8
 70
     1
102
RTVSPropertyOp9
 70
     1
102
RTVSPropertyOp10
 70
     1
102
RTVSPropertyOp11
 70
     1
102
RTVSPropertyOp12
 70
     1
102
RTVSPropertyOp13
 70
     1
102
RTVSPropertyOp14
 70
     1
102
RTVSPropertyOp15
 70
     1
102
RTVSPropertyOp16
 70
     1
102
RTVSPropertyOp17
 70
     1
102
RTVSPropertyOp18
 70
     1
102
RTVSPropertyOp19
 70
     1
102
RTVSPropertyOp20
 70
     1
102
RTVSPropertyOp21
 70
     1
102
RTVSPropertyOp22
 70
     1
102
RTVSPropertyOp23
 70
     1
102
RTVSPropertyOp24
 70
     1
102
RTVSPropertyOp25
 70
     1
102
RTVSPropertyOp26
 70
     1
102
RTVSPropertyOp27
 70
     1
102
RTVSPropertyOp28
 70
     1
102
RTVSPropertyOp29
 70
     1
102
RTVSPropertyOp30
 70
     1
102
RTVSPropertyOp31
 70
     1
102
RTVSPropertyOp32
 70
     1
  0
XRECORD
  5
461
102
{ACAD_REACTORS
330
460
102
}
330
460
100
AcDbXrecord
280
     1
102
RTVSPropertyOp0
 70
     1
102
RTVSPropertyOp1
 70
     1
102
RTVSPropertyOp2
 70
     1
102
RTVSPropertyOp3
 70
     1
102
RTVSPropertyOp4
 70
     1
102
RTVSPropertyOp5
 70
     1
102
RTVSPropertyOp6
 70
     1
102
RTVSPropertyOp7
 70
     1
102
RTVSPropertyOp8
 70
     1
102
RTVSPropertyOp9
 70
     1
102
RTVSPropertyOp10
 70
     1
102
RTVSPropertyOp11
 70
     1
102
RTVSPropertyOp12
 70
     1
102
RTVSPropertyOp13
 70
     1
102
RTVSPropertyOp14
 70
     1
102
RTVSPropertyOp15
 70
     1
102
RTVSPropertyOp16
 70
     1
102
RTVSPropertyOp17
 70
     1
102
RTVSPropertyOp18
 70
     1
102
RTVSPropertyOp19
 70
     1
102
RTVSPropertyOp20
 70
     1
102
RTVSPropertyOp21
 70
     1
102
RTVSPropertyOp22
 70
     1
102
RTVSPropertyOp23
 70
     1
102
RTVSPropertyOp24
 70
     1
102
RTVSPropertyOp25
 70
     1
102
RTVSPropertyOp26
 70
     1
102
RTVSPropertyOp27
 70
     1
102
RTVSPropertyOp28
 70
     1
102
RTVSPropertyOp29
 70
     1
102
RTVSPropertyOp30
 70
     1
102
RTVSPropertyOp31
 70
     1
102
RTVSPropertyOp32
 70
     1
  0
XRECORD
  5
453
102
{ACAD_REACTORS
330
452
102
}
330
452
100
AcDbXrecord
280
     1
102
RTVSPropertyOp0
 70
     1
102
RTVSPropertyOp1
 70
     1
102
RTVSPropertyOp2
 70
     1
102
RTVSPropertyOp3
 70
     1
102
RTVSPropertyOp4
 70
     1
102
RTVSPropertyOp5
 70
     1
102
RTVSPropertyOp6
 70
     1
102
RTVSPropertyOp7
 70
     1
102
RTVSPropertyOp8
 70
     1
102
RTVSPropertyOp9
 70
     1
102
RTVSPropertyOp10
 70
     1
102
RTVSPropertyOp11
 70
     1
102
RTVSPropertyOp12
 70
     1
102
RTVSPropertyOp13
 70
     1
102
RTVSPropertyOp14
 70
     1
102
RTVSPropertyOp15
 70
     1
102
RTVSPropertyOp16
 70
     1
102
RTVSPropertyOp17
 70
     1
102
RTVSPropertyOp18
 70
     1
102
RTVSPropertyOp19
 70
     1
102
RTVSPropertyOp20
 70
     1
102
RTVSPropertyOp21
 70
     1
102
RTVSPropertyOp22
 70
     1
102
RTVSPropertyOp23
 70
     1
102
RTVSPropertyOp24
 70
     1
102
RTVSPropertyOp25
 70
     1
102
RTVSPropertyOp26
 70
     1
102
RTVSPropertyOp27
 70
     1
102
RTVSPropertyOp28
 70
     1
102
RTVSPropertyOp29
 70
     1
102
RTVSPropertyOp30
 70
     1
102
RTVSPropertyOp31
 70
     1
102
RTVSPropertyOp32
 70
     1
  0
XRECORD
  5
457
102
{ACAD_REACTORS
330
456
102
}
330
456
100
AcDbXrecord
280
     1
102
RTVSPropertyOp0
 70
     1
102
RTVSPropertyOp1
 70
     1
102
RTVSPropertyOp2
 70
     1
102
RTVSPropertyOp3
 70
     1
102
RTVSPropertyOp4
 70
     1
102
RTVSPropertyOp5
 70
     1
102
RTVSPropertyOp6
 70
     1
102
RTVSPropertyOp7
 70
     1
102
RTVSPropertyOp8
 70
     1
102
RTVSPropertyOp9
 70
     1
102
RTVSPropertyOp10
 70
     1
102
RTVSPropertyOp11
 70
     1
102
RTVSPropertyOp12
 70
     1
102
RTVSPropertyOp13
 70
     1
102
RTVSPropertyOp14
 70
     1
102
RTVSPropertyOp15
 70
     1
102
RTVSPropertyOp16
 70
     1
102
RTVSPropertyOp17
 70
     1
102
RTVSPropertyOp18
 70
     1
102
RTVSPropertyOp19
 70
     1
102
RTVSPropertyOp20
 70
     1
102
RTVSPropertyOp21
 70
     1
102
RTVSPropertyOp22
 70
     1
102
RTVSPropertyOp23
 70
     1
102
RTVSPropertyOp24
 70
     1
102
RTVSPropertyOp25
 70
     1
102
RTVSPropertyOp26
 70
     1
102
RTVSPropertyOp27
 70
     1
102
RTVSPropertyOp28
 70
     1
102
RTVSPropertyOp29
 70
     1
102
RTVSPropertyOp30
 70
     1
102
RTVSPropertyOp31
 70
     1
102
RTVSPropertyOp32
 70
     1
  0
XRECORD
  5
471
102
{ACAD_REACTORS
330
470
102
}
330
470
100
AcDbXrecord
280
     1
102
RTVSPropertyOp0
 70
     0
102
RTVSPropertyOp1
 70
     0
102
RTVSPropertyOp2
 70
     0
102
RTVSPropertyOp3
 70
     0
102
RTVSPropertyOp4
 70
     0
102
RTVSPropertyOp5
 70
     0
102
RTVSPropertyOp6
 70
     0
102
RTVSPropertyOp7
 70
     0
102
RTVSPropertyOp8
 70
     0
102
RTVSPropertyOp9
 70
     0
102
RTVSPropertyOp10
 70
     0
102
RTVSPropertyOp11
 70
     0
102
RTVSPropertyOp12
 70
     0
102
RTVSPropertyOp13
 70
     0
102
RTVSPropertyOp14
 70
     2
102
RTVSPropertyOp15
 70
     0
102
RTVSPropertyOp16
 70
     0
102
RTVSPropertyOp17
 70
     0
102
RTVSPropertyOp18
 70
     0
102
RTVSPropertyOp19
 70
     0
102
RTVSPropertyOp20
 70
     0
102
RTVSPropertyOp21
 70
     0
102
RTVSPropertyOp22
 70
     0
102
RTVSPropertyOp23
 70
     0
102
RTVSPropertyOp24
 70
     0
102
RTVSPropertyOp25
 70
     0
102
RTVSPropertyOp26
 70
     0
102
RTVSPropertyOp27
 70
     0
102
RTVSPropertyOp28
 70
     0
102
RTVSPropertyOp29
 70
     0
102
RTVSPropertyOp30
 70
     0
102
RTVSPropertyOp31
 70
     0
102
RTVSPropertyOp32
 70
     0
  0
XRECORD
  5
45F
102
{ACAD_REACTORS
330
45E
102
}
330
45E
100
AcDbXrecord
280
     1
102
RTVSPropertyOp0
 70
     1
102
RTVSPropertyOp1
 70
     1
102
RTVSPropertyOp2
 70
     1
102
RTVSPropertyOp3
 70
     1
102
RTVSPropertyOp4
 70
     1
102
RTVSPropertyOp5
 70
     1
102
RTVSPropertyOp6
 70
     1
102
RTVSPropertyOp7
 70
     1
102
RTVSPropertyOp8
 70
     1
102
RTVSPropertyOp9
 70
     1
102
RTVSPropertyOp10
 70
     1
102
RTVSPropertyOp11
 70
     1
102
RTVSPropertyOp12
 70
     1
102
RTVSPropertyOp13
 70
     1
102
RTVSPropertyOp14
 70
     1
102
RTVSPropertyOp15
 70
     1
102
RTVSPropertyOp16
 70
     1
102
RTVSPropertyOp17
 70
     1
102
RTVSPropertyOp18
 70
     1
102
RTVSPropertyOp19
 70
     1
102
RTVSPropertyOp20
 70
     1
102
RTVSPropertyOp21
 70
     1
102
RTVSPropertyOp22
 70
     1
102
RTVSPropertyOp23
 70
     1
102
RTVSPropertyOp24
 70
     1
102
RTVSPropertyOp25
 70
     1
102
RTVSPropertyOp26
 70
     1
102
RTVSPropertyOp27
 70
     1
102
RTVSPropertyOp28
 70
     1
102
RTVSPropertyOp29
 70
     1
102
RTVSPropertyOp30
 70
     1
102
RTVSPropertyOp31
 70
     1
102
RTVSPropertyOp32
 70
     1
  0
XRECORD
  5
443
102
{ACAD_REACTORS
330
442
102
}
330
442
100
AcDbXrecord
280
     1
102
RTVSPropertyOp0
 70
     1
102
RTVSPropertyOp1
 70
     1
102
RTVSPropertyOp2
 70
     1
102
RTVSPropertyOp3
 70
     1
102
RTVSPropertyOp4
 70
     1
102
RTVSPropertyOp5
 70
     1
102
RTVSPropertyOp6
 70
     1
102
RTVSPropertyOp7
 70
     1
102
RTVSPropertyOp8
 70
     1
102
RTVSPropertyOp9
 70
     1
102
RTVSPropertyOp10
 70
     1
102
RTVSPropertyOp11
 70
     1
102
RTVSPropertyOp12
 70
     1
102
RTVSPropertyOp13
 70
     1
102
RTVSPropertyOp14
 70
     1
102
RTVSPropertyOp15
 70
     1
102
RTVSPropertyOp16
 70
     1
102
RTVSPropertyOp17
 70
     1
102
RTVSPropertyOp18
 70
     1
102
RTVSPropertyOp19
 70
     1
102
RTVSPropertyOp20
 70
     1
102
RTVSPropertyOp21
 70
     1
102
RTVSPropertyOp22
 70
     1
102
RTVSPropertyOp23
 70
     1
102
RTVSPropertyOp24
 70
     1
102
RTVSPropertyOp25
 70
     1
102
RTVSPropertyOp26
 70
     1
102
RTVSPropertyOp27
 70
     1
102
RTVSPropertyOp28
 70
     1
102
RTVSPropertyOp29
 70
     1
102
RTVSPropertyOp30
 70
     1
102
RTVSPropertyOp31
 70
     1
102
RTVSPropertyOp32
 70
     1
  0
XRECORD
  5
445
102
{ACAD_REACTORS
330
444
102
}
330
444
100
AcDbXrecord
280
     1
102
RTVSPropertyOp0
 70
     1
102
RTVSPropertyOp1
 70
     1
102
RTVSPropertyOp2
 70
     1
102
RTVSPropertyOp3
 70
     1
102
RTVSPropertyOp4
 70
     1
102
RTVSPropertyOp5
 70
     1
102
RTVSPropertyOp6
 70
     1
102
RTVSPropertyOp7
 70
     1
102
RTVSPropertyOp8
 70
     1
102
RTVSPropertyOp9
 70
     1
102
RTVSPropertyOp10
 70
     1
102
RTVSPropertyOp11
 70
     1
102
RTVSPropertyOp12
 70
     1
102
RTVSPropertyOp13
 70
     1
102
RTVSPropertyOp14
 70
     1
102
RTVSPropertyOp15
 70
     1
102
RTVSPropertyOp16
 70
     1
102
RTVSPropertyOp17
 70
     1
102
RTVSPropertyOp18
 70
     1
102
RTVSPropertyOp19
 70
     1
102
RTVSPropertyOp20
 70
     1
102
RTVSPropertyOp21
 70
     1
102
RTVSPropertyOp22
 70
     1
102
RTVSPropertyOp23
 70
     1
102
RTVSPropertyOp24
 70
     1
102
RTVSPropertyOp25
 70
     1
102
RTVSPropertyOp26
 70
     1
102
RTVSPropertyOp27
 70
     1
102
RTVSPropertyOp28
 70
     1
102
RTVSPropertyOp29
 70
     1
102
RTVSPropertyOp30
 70
     1
102
RTVSPropertyOp31
 70
     1
102
RTVSPropertyOp32
 70
     1
  0
XRECORD
  5
447
102
{ACAD_REACTORS
330
446
102
}
330
446
100
AcDbXrecord
280
     1
102
RTVSPropertyOp0
 70
     1
102
RTVSPropertyOp1
 70
     1
102
RTVSPropertyOp2
 70
     1
102
RTVSPropertyOp3
 70
     1
102
RTVSPropertyOp4
 70
     1
102
RTVSPropertyOp5
 70
     1
102
RTVSPropertyOp6
 70
     1
102
RTVSPropertyOp7
 70
     1
102
RTVSPropertyOp8
 70
     1
102
RTVSPropertyOp9
 70
     1
102
RTVSPropertyOp10
 70
     1
102
RTVSPropertyOp11
 70
     1
102
RTVSPropertyOp12
 70
     1
102
RTVSPropertyOp13
 70
     1
102
RTVSPropertyOp14
 70
     1
102
RTVSPropertyOp15
 70
     1
102
RTVSPropertyOp16
 70
     1
102
RTVSPropertyOp17
 70
     1
102
RTVSPropertyOp18
 70
     1
102
RTVSPropertyOp19
 70
     1
102
RTVSPropertyOp20
 70
     1
102
RTVSPropertyOp21
 70
     1
102
RTVSPropertyOp22
 70
     1
102
RTVSPropertyOp23
 70
     1
102
RTVSPropertyOp24
 70
     1
102
RTVSPropertyOp25
 70
     1
102
RTVSPropertyOp26
 70
     1
102
RTVSPropertyOp27
 70
     1
102
RTVSPropertyOp28
 70
     1
102
RTVSPropertyOp29
 70
     1
102
RTVSPropertyOp30
 70
     1
102
RTVSPropertyOp31
 70
     1
102
RTVSPropertyOp32
 70
     1
  0
XRECORD
  5
449
102
{ACAD_REACTORS
330
448
102
}
330
448
100
AcDbXrecord
280
     1
102
RTVSPropertyOp0
 70
     1
102
RTVSPropertyOp1
 70
     1
102
RTVSPropertyOp2
 70
     1
102
RTVSPropertyOp3
 70
     1
102
RTVSPropertyOp4
 70
     1
102
RTVSPropertyOp5
 70
     1
102
RTVSPropertyOp6
 70
     1
102
RTVSPropertyOp7
 70
     1
102
RTVSPropertyOp8
 70
     1
102
RTVSPropertyOp9
 70
     1
102
RTVSPropertyOp10
 70
     1
102
RTVSPropertyOp11
 70
     1
102
RTVSPropertyOp12
 70
     1
102
RTVSPropertyOp13
 70
     1
102
RTVSPropertyOp14
 70
     1
102
RTVSPropertyOp15
 70
     1
102
RTVSPropertyOp16
 70
     1
102
RTVSPropertyOp17
 70
     1
102
RTVSPropertyOp18
 70
     1
102
RTVSPropertyOp19
 70
     1
102
RTVSPropertyOp20
 70
     1
102
RTVSPropertyOp21
 70
     1
102
RTVSPropertyOp22
 70
     1
102
RTVSPropertyOp23
 70
     1
102
RTVSPropertyOp24
 70
     1
102
RTVSPropertyOp25
 70
     1
102
RTVSPropertyOp26
 70
     1
102
RTVSPropertyOp27
 70
     1
102
RTVSPropertyOp28
 70
     1
102
RTVSPropertyOp29
 70
     1
102
RTVSPropertyOp30
 70
     1
102
RTVSPropertyOp31
 70
     1
102
RTVSPropertyOp32
 70
     1
  0
XRECORD
  5
451
102
{ACAD_REACTORS
330
450
102
}
330
450
100
AcDbXrecord
280
     1
102
RTVSPropertyOp0
 70
     1
102
RTVSPropertyOp1
 70
     1
102
RTVSPropertyOp2
 70
     1
102
RTVSPropertyOp3
 70
     1
102
RTVSPropertyOp4
 70
     1
102
RTVSPropertyOp5
 70
     1
102
RTVSPropertyOp6
 70
     1
102
RTVSPropertyOp7
 70
     1
102
RTVSPropertyOp8
 70
     1
102
RTVSPropertyOp9
 70
     1
102
RTVSPropertyOp10
 70
     1
102
RTVSPropertyOp11
 70
     1
102
RTVSPropertyOp12
 70
     1
102
RTVSPropertyOp13
 70
     1
102
RTVSPropertyOp14
 70
     1
102
RTVSPropertyOp15
 70
     1
102
RTVSPropertyOp16
 70
     1
102
RTVSPropertyOp17
 70
     1
102
RTVSPropertyOp18
 70
     1
102
RTVSPropertyOp19
 70
     1
102
RTVSPropertyOp20
 70
     1
102
RTVSPropertyOp21
 70
     1
102
RTVSPropertyOp22
 70
     1
102
RTVSPropertyOp23
 70
     1
102
RTVSPropertyOp24
 70
     1
102
RTVSPropertyOp25
 70
     1
102
RTVSPropertyOp26
 70
     1
102
RTVSPropertyOp27
 70
     1
102
RTVSPropertyOp28
 70
     1
102
RTVSPropertyOp29
 70
     1
102
RTVSPropertyOp30
 70
     1
102
RTVSPropertyOp31
 70
     1
102
RTVSPropertyOp32
 70
     1
  0
XRECORD
  5
46D
102
{ACAD_REACTORS
330
46C
102
}
330
46C
100
AcDbXrecord
280
     1
102
RTVSPropertyOp0
 70
     0
102
RTVSPropertyOp1
 70
     0
102
RTVSPropertyOp2
 70
     0
102
RTVSPropertyOp3
 70
     0
102
RTVSPropertyOp4
 70
     0
102
RTVSPropertyOp5
 70
     0
102
RTVSPropertyOp6
 70
     0
102
RTVSPropertyOp7
 70
     0
102
RTVSPropertyOp8
 70
     0
102
RTVSPropertyOp9
 70
     0
102
RTVSPropertyOp10
 70
     0
102
RTVSPropertyOp11
 70
     0
102
RTVSPropertyOp12
 70
     0
102
RTVSPropertyOp13
 70
     0
102
RTVSPropertyOp14
 70
     2
102
RTVSPropertyOp15
 70
     0
102
RTVSPropertyOp16
 70
     0
102
RTVSPropertyOp17
 70
     0
102
RTVSPropertyOp18
 70
     0
102
RTVSPropertyOp19
 70
     0
102
RTVSPropertyOp20
 70
     0
102
RTVSPropertyOp21
 70
     0
102
RTVSPropertyOp22
 70
     0
102
RTVSPropertyOp23
 70
     0
102
RTVSPropertyOp24
 70
     0
102
RTVSPropertyOp25
 70
     0
102
RTVSPropertyOp26
 70
     0
102
RTVSPropertyOp27
 70
     0
102
RTVSPropertyOp28
 70
     0
102
RTVSPropertyOp29
 70
     0
102
RTVSPropertyOp30
 70
     0
102
RTVSPropertyOp31
 70
     0
102
RTVSPropertyOp32
 70
     0
  0
XRECORD
  5
45D
102
{ACAD_REACTORS
330
45C
102
}
330
45C
100
AcDbXrecord
280
     1
102
RTVSPropertyOp0
 70
     1
102
RTVSPropertyOp1
 70
     1
102
RTVSPropertyOp2
 70
     1
102
RTVSPropertyOp3
 70
     1
102
RTVSPropertyOp4
 70
     1
102
RTVSPropertyOp5
 70
     1
102
RTVSPropertyOp6
 70
     1
102
RTVSPropertyOp7
 70
     1
102
RTVSPropertyOp8
 70
     1
102
RTVSPropertyOp9
 70
     1
102
RTVSPropertyOp10
 70
     1
102
RTVSPropertyOp11
 70
     1
102
RTVSPropertyOp12
 70
     1
102
RTVSPropertyOp13
 70
     1
102
RTVSPropertyOp14
 70
     1
102
RTVSPropertyOp15
 70
     1
102
RTVSPropertyOp16
 70
     1
102
RTVSPropertyOp17
 70
     1
102
RTVSPropertyOp18
 70
     1
102
RTVSPropertyOp19
 70
     1
102
RTVSPropertyOp20
 70
     1
102
RTVSPropertyOp21
 70
     1
102
RTVSPropertyOp22
 70
     1
102
RTVSPropertyOp23
 70
     1
102
RTVSPropertyOp24
 70
     1
102
RTVSPropertyOp25
 70
     1
102
RTVSPropertyOp26
 70
     1
102
RTVSPropertyOp27
 70
     1
102
RTVSPropertyOp28
 70
     1
102
RTVSPropertyOp29
 70
     1
102
RTVSPropertyOp30
 70
     1
102
RTVSPropertyOp31
 70
     1
102
RTVSPropertyOp32
 70
     1
  0
XRECORD
  5
46F
102
{ACAD_REACTORS
330
46E
102
}
330
46E
100
AcDbXrecord
280
     1
102
RTVSPropertyOp0
 70
     0
102
RTVSPropertyOp1
 70
     0
102
RTVSPropertyOp2
 70
     0
102
RTVSPropertyOp3
 70
     0
102
RTVSPropertyOp4
 70
     0
102
RTVSPropertyOp5
 70
     0
102
RTVSPropertyOp6
 70
     0
102
RTVSPropertyOp7
 70
     0
102
RTVSPropertyOp8
 70
     0
102
RTVSPropertyOp9
 70
     0
102
RTVSPropertyOp10
 70
     0
102
RTVSPropertyOp11
 70
     0
102
RTVSPropertyOp12
 70
     0
102
RTVSPropertyOp13
 70
     0
102
RTVSPropertyOp14
 70
     2
102
RTVSPropertyOp15
 70
     0
102
RTVSPropertyOp16
 70
     0
102
RTVSPropertyOp17
 70
     0
102
RTVSPropertyOp18
 70
     0
102
RTVSPropertyOp19
 70
     0
102
RTVSPropertyOp20
 70
     0
102
RTVSPropertyOp21
 70
     0
102
RTVSPropertyOp22
 70
     0
102
RTVSPropertyOp23
 70
     0
102
RTVSPropertyOp24
 70
     0
102
RTVSPropertyOp25
 70
     0
102
RTVSPropertyOp26
 70
     0
102
RTVSPropertyOp27
 70
     0
102
RTVSPropertyOp28
 70
     0
102
RTVSPropertyOp29
 70
     0
102
RTVSPropertyOp30
 70
     0
102
RTVSPropertyOp31
 70
     0
102
RTVSPropertyOp32
 70
     0
  0
XRECORD
  5
455
102
{ACAD_REACTORS
330
454
102
}
330
454
100
AcDbXrecord
280
     1
102
RTVSPropertyOp0
 70
     1
102
RTVSPropertyOp1
 70
     1
102
RTVSPropertyOp2
 70
     1
102
RTVSPropertyOp3
 70
     1
102
RTVSPropertyOp4
 70
     1
102
RTVSPropertyOp5
 70
     1
102
RTVSPropertyOp6
 70
     1
102
RTVSPropertyOp7
 70
     1
102
RTVSPropertyOp8
 70
     1
102
RTVSPropertyOp9
 70
     1
102
RTVSPropertyOp10
 70
     1
102
RTVSPropertyOp11
 70
     1
102
RTVSPropertyOp12
 70
     1
102
RTVSPropertyOp13
 70
     1
102
RTVSPropertyOp14
 70
     1
102
RTVSPropertyOp15
 70
     1
102
RTVSPropertyOp16
 70
     1
102
RTVSPropertyOp17
 70
     1
102
RTVSPropertyOp18
 70
     1
102
RTVSPropertyOp19
 70
     1
102
RTVSPropertyOp20
 70
     1
102
RTVSPropertyOp21
 70
     1
102
RTVSPropertyOp22
 70
     1
102
RTVSPropertyOp23
 70
     1
102
RTVSPropertyOp24
 70
     1
102
RTVSPropertyOp25
 70
     1
102
RTVSPropertyOp26
 70
     1
102
RTVSPropertyOp27
 70
     1
102
RTVSPropertyOp28
 70
     1
102
RTVSPropertyOp29
 70
     1
102
RTVSPropertyOp30
 70
     1
102
RTVSPropertyOp31
 70
     1
102
RTVSPropertyOp32
 70
     1
  0
XRECORD
  5
46B
102
{ACAD_REACTORS
330
46A
102
}
330
46A
100
AcDbXrecord
280
     1
102
RTVSPropertyOp0
 70
     1
102
RTVSPropertyOp1
 70
     1
102
RTVSPropertyOp2
 70
     1
102
RTVSPropertyOp3
 70
     1
102
RTVSPropertyOp4
 70
     1
102
RTVSPropertyOp5
 70
     1
102
RTVSPropertyOp6
 70
     1
102
RTVSPropertyOp7
 70
     1
102
RTVSPropertyOp8
 70
     1
102
RTVSPropertyOp9
 70
     1
102
RTVSPropertyOp10
 70
     1
102
RTVSPropertyOp11
 70
     1
102
RTVSPropertyOp12
 70
     1
102
RTVSPropertyOp13
 70
     1
102
RTVSPropertyOp14
 70
     1
102
RTVSPropertyOp15
 70
     1
102
RTVSPropertyOp16
 70
     1
102
RTVSPropertyOp17
 70
     1
102
RTVSPropertyOp18
 70
     1
102
RTVSPropertyOp19
 70
     1
102
RTVSPropertyOp20
 70
     1
102
RTVSPropertyOp21
 70
     1
102
RTVSPropertyOp22
 70
     1
102
RTVSPropertyOp23
 70
     1
102
RTVSPropertyOp24
 70
     1
102
RTVSPropertyOp25
 70
     1
102
RTVSPropertyOp26
 70
     1
102
RTVSPropertyOp27
 70
     1
102
RTVSPropertyOp28
 70
     1
102
RTVSPropertyOp29
 70
     1
102
RTVSPropertyOp30
 70
     1
102
RTVSPropertyOp31
 70
     1
102
RTVSPropertyOp32
 70
     1
  0
XRECORD
  5
469
102
{ACAD_REACTORS
330
468
102
}
330
468
100
AcDbXrecord
280
     1
102
RTVSPropertyOp0
 70
     1
102
RTVSPropertyOp1
 70
     1
102
RTVSPropertyOp2
 70
     1
102
RTVSPropertyOp3
 70
     1
102
RTVSPropertyOp4
 70
     1
102
RTVSPropertyOp5
 70
     1
102
RTVSPropertyOp6
 70
     1
102
RTVSPropertyOp7
 70
     1
102
RTVSPropertyOp8
 70
     1
102
RTVSPropertyOp9
 70
     1
102
RTVSPropertyOp10
 70
     1
102
RTVSPropertyOp11
 70
     1
102
RTVSPropertyOp12
 70
     1
102
RTVSPropertyOp13
 70
     1
102
RTVSPropertyOp14
 70
     1
102
RTVSPropertyOp15
 70
     1
102
RTVSPropertyOp16
 70
     1
102
RTVSPropertyOp17
 70
     1
102
RTVSPropertyOp18
 70
     1
102
RTVSPropertyOp19
 70
     1
102
RTVSPropertyOp20
 70
     1
102
RTVSPropertyOp21
 70
     1
102
RTVSPropertyOp22
 70
     1
102
RTVSPropertyOp23
 70
     1
102
RTVSPropertyOp24
 70
     1
102
RTVSPropertyOp25
 70
     1
102
RTVSPropertyOp26
 70
     1
102
RTVSPropertyOp27
 70
     1
102
RTVSPropertyOp28
 70
     1
102
RTVSPropertyOp29
 70
     1
102
RTVSPropertyOp30
 70
     1
102
RTVSPropertyOp31
 70
     1
102
RTVSPropertyOp32
 70
     1
  0
XRECORD
  5
463
102
{ACAD_REACTORS
330
462
102
}
330
462
100
AcDbXrecord
280
     1
102
RTVSPropertyOp0
 70
     1
102
RTVSPropertyOp1
 70
     1
102
RTVSPropertyOp2
 70
     1
102
RTVSPropertyOp3
 70
     1
102
RTVSPropertyOp4
 70
     1
102
RTVSPropertyOp5
 70
     1
102
RTVSPropertyOp6
 70
     1
102
RTVSPropertyOp7
 70
     1
102
RTVSPropertyOp8
 70
     1
102
RTVSPropertyOp9
 70
     1
102
RTVSPropertyOp10
 70
     1
102
RTVSPropertyOp11
 70
     1
102
RTVSPropertyOp12
 70
     1
102
RTVSPropertyOp13
 70
     1
102
RTVSPropertyOp14
 70
     1
102
RTVSPropertyOp15
 70
     1
102
RTVSPropertyOp16
 70
     1
102
RTVSPropertyOp17
 70
     1
102
RTVSPropertyOp18
 70
     1
102
RTVSPropertyOp19
 70
     1
102
RTVSPropertyOp20
 70
     1
102
RTVSPropertyOp21
 70
     1
102
RTVSPropertyOp22
 70
     1
102
RTVSPropertyOp23
 70
     1
102
RTVSPropertyOp24
 70
     1
102
RTVSPropertyOp25
 70
     1
102
RTVSPropertyOp26
 70
     1
102
RTVSPropertyOp27
 70
     1
102
RTVSPropertyOp28
 70
     1
102
RTVSPropertyOp29
 70
     1
102
RTVSPropertyOp30
 70
     1
102
RTVSPropertyOp31
 70
     1
102
RTVSPropertyOp32
 70
     1
  0
XRECORD
  5
465
102
{ACAD_REACTORS
330
464
102
}
330
464
100
AcDbXrecord
280
     1
102
RTVSPropertyOp0
 70
     1
102
RTVSPropertyOp1
 70
     1
102
RTVSPropertyOp2
 70
     1
102
RTVSPropertyOp3
 70
     1
102
RTVSPropertyOp4
 70
     1
102
RTVSPropertyOp5
 70
     1
102
RTVSPropertyOp6
 70
     1
102
RTVSPropertyOp7
 70
     1
102
RTVSPropertyOp8
 70
     1
102
RTVSPropertyOp9
 70
     1
102
RTVSPropertyOp10
 70
     1
102
RTVSPropertyOp11
 70
     1
102
RTVSPropertyOp12
 70
     1
102
RTVSPropertyOp13
 70
     1
102
RTVSPropertyOp14
 70
     1
102
RTVSPropertyOp15
 70
     1
102
RTVSPropertyOp16
 70
     1
102
RTVSPropertyOp17
 70
     1
102
RTVSPropertyOp18
 70
     1
102
RTVSPropertyOp19
 70
     1
102
RTVSPropertyOp20
 70
     1
102
RTVSPropertyOp21
 70
     1
102
RTVSPropertyOp22
 70
     1
102
RTVSPropertyOp23
 70
     1
102
RTVSPropertyOp24
 70
     1
102
RTVSPropertyOp25
 70
     1
102
RTVSPropertyOp26
 70
     1
102
RTVSPropertyOp27
 70
     1
102
RTVSPropertyOp28
 70
     1
102
RTVSPropertyOp29
 70
     1
102
RTVSPropertyOp30
 70
     1
102
RTVSPropertyOp31
 70
     1
102
RTVSPropertyOp32
 70
     1
  0
XRECORD
  5
45B
102
{ACAD_REACTORS
330
45A
102
}
330
45A
100
AcDbXrecord
280
     1
102
RTVSPropertyOp0
 70
     1
102
RTVSPropertyOp1
 70
     1
102
RTVSPropertyOp2
 70
     1
102
RTVSPropertyOp3
 70
     1
102
RTVSPropertyOp4
 70
     1
102
RTVSPropertyOp5
 70
     1
102
RTVSPropertyOp6
 70
     1
102
RTVSPropertyOp7
 70
     1
102
RTVSPropertyOp8
 70
     1
102
RTVSPropertyOp9
 70
     1
102
RTVSPropertyOp10
 70
     1
102
RTVSPropertyOp11
 70
     1
102
RTVSPropertyOp12
 70
     1
102
RTVSPropertyOp13
 70
     1
102
RTVSPropertyOp14
 70
     1
102
RTVSPropertyOp15
 70
     1
102
RTVSPropertyOp16
 70
     1
102
RTVSPropertyOp17
 70
     1
102
RTVSPropertyOp18
 70
     1
102
RTVSPropertyOp19
 70
     1
102
RTVSPropertyOp20
 70
     1
102
RTVSPropertyOp21
 70
     1
102
RTVSPropertyOp22
 70
     1
102
RTVSPropertyOp23
 70
     1
102
RTVSPropertyOp24
 70
     1
102
RTVSPropertyOp25
 70
     1
102
RTVSPropertyOp26
 70
     1
102
RTVSPropertyOp27
 70
     1
102
RTVSPropertyOp28
 70
     1
102
RTVSPropertyOp29
 70
     1
102
RTVSPropertyOp30
 70
     1
102
RTVSPropertyOp31
 70
     1
102
RTVSPropertyOp32
 70
     1
  0
XRECORD
  5
44F
102
{ACAD_REACTORS
330
44E
102
}
330
44E
100
AcDbXrecord
280
     1
102
RTVSPropertyOp0
 70
     1
102
RTVSPropertyOp1
 70
     1
102
RTVSPropertyOp2
 70
     1
102
RTVSPropertyOp3
 70
     1
102
RTVSPropertyOp4
 70
     1
102
RTVSPropertyOp5
 70
     1
102
RTVSPropertyOp6
 70
     1
102
RTVSPropertyOp7
 70
     1
102
RTVSPropertyOp8
 70
     1
102
RTVSPropertyOp9
 70
     1
102
RTVSPropertyOp10
 70
     1
102
RTVSPropertyOp11
 70
     1
102
RTVSPropertyOp12
 70
     1
102
RTVSPropertyOp13
 70
     1
102
RTVSPropertyOp14
 70
     1
102
RTVSPropertyOp15
 70
     1
102
RTVSPropertyOp16
 70
     1
102
RTVSPropertyOp17
 70
     1
102
RTVSPropertyOp18
 70
     1
102
RTVSPropertyOp19
 70
     1
102
RTVSPropertyOp20
 70
     1
102
RTVSPropertyOp21
 70
     1
102
RTVSPropertyOp22
 70
     1
102
RTVSPropertyOp23
 70
     1
102
RTVSPropertyOp24
 70
     1
102
RTVSPropertyOp25
 70
     1
102
RTVSPropertyOp26
 70
     1
102
RTVSPropertyOp27
 70
     1
102
RTVSPropertyOp28
 70
     1
102
RTVSPropertyOp29
 70
     1
102
RTVSPropertyOp30
 70
     1
102
RTVSPropertyOp31
 70
     1
102
RTVSPropertyOp32
 70
     1
  0
XRECORD
  5
467
102
{ACAD_REACTORS
330
466
102
}
330
466
100
AcDbXrecord
280
     1
102
RTVSPropertyOp0
 70
     1
102
RTVSPropertyOp1
 70
     1
102
RTVSPropertyOp2
 70
     1
102
RTVSPropertyOp3
 70
     1
102
RTVSPropertyOp4
 70
     1
102
RTVSPropertyOp5
 70
     1
102
RTVSPropertyOp6
 70
     1
102
RTVSPropertyOp7
 70
     1
102
RTVSPropertyOp8
 70
     1
102
RTVSPropertyOp9
 70
     1
102
RTVSPropertyOp10
 70
     1
102
RTVSPropertyOp11
 70
     1
102
RTVSPropertyOp12
 70
     1
102
RTVSPropertyOp13
 70
     1
102
RTVSPropertyOp14
 70
     1
102
RTVSPropertyOp15
 70
     1
102
RTVSPropertyOp16
 70
     1
102
RTVSPropertyOp17
 70
     1
102
RTVSPropertyOp18
 70
     1
102
RTVSPropertyOp19
 70
     1
102
RTVSPropertyOp20
 70
     1
102
RTVSPropertyOp21
 70
     1
102
RTVSPropertyOp22
 70
     1
102
RTVSPropertyOp23
 70
     1
102
RTVSPropertyOp24
 70
     1
102
RTVSPropertyOp25
 70
     1
102
RTVSPropertyOp26
 70
     1
102
RTVSPropertyOp27
 70
     1
102
RTVSPropertyOp28
 70
     1
102
RTVSPropertyOp29
 70
     1
102
RTVSPropertyOp30
 70
     1
102
RTVSPropertyOp31
 70
     1
102
RTVSPropertyOp32
 70
     1
  0
ENDSEC
  0
EOF
