  0
SECTION
  2
HEADER
  9
$ACADVER
  1
AC1015
  9
$ACADMAINTVER
 70
    20
  9
$DWGCODEPAGE
  3
ANSI_1252
  9
$INSBASE
 10
0.0
 20
0.0
 30
0.0
  9
$EXTMIN
 10
39.99886126836037
 20
44.60860134380161
 30
-0.0000000000000057
  9
$EXTMAX
 10
164.2589705946915
 20
130.4939735303672
 30
0.0000000000000057
  9
$LIMMIN
 10
0.0
 20
0.0
  9
$LIMMAX
 10
12.0
 20
9.0
  9
$ORTHOMODE
 70
     0
  9
$REGENMODE
 70
     1
  9
$FILLMODE
 70
     1
  9
$QTEXTMODE
 70
     0
  9
$MIRRTEXT
 70
     0
  9
$LTSCALE
 40
1.0
  9
$ATTMODE
 70
     1
  9
$TEXTSIZE
 40
0.875
  9
$TRACEWID
 40
0.05
  9
$TEXTSTYLE
  7
Standard
  9
$CLAYER
  8
product
  9
$CELTYPE
  6
ByLayer
  9
$CECOLOR
 62
   256
  9
$CELTSCALE
 40
1.0
  9
$DISPSILH
 70
     0
  9
$DIMSCALE
 40
1.0
  9
$DIMASZ
 40
1.8
  9
$DIMEXO
 40
0.0625
  9
$DIMDLI
 40
0.38
  9
$DIMRND
 40
0.0
  9
$DIMDLE
 40
0.0
  9
$DIMEXE
 40
0.0625
  9
$DIMTP
 40
0.0
  9
$DIMTM
 40
0.0
  9
$DIMTXT
 40
1.8
  9
$DIMCEN
 40
0.09
  9
$DIMTSZ
 40
0.0
  9
$DIMTOL
 70
     0
  9
$DIMLIM
 70
     0
  9
$DIMTIH
 70
     1
  9
$DIMTOH
 70
     1
  9
$DIMSE1
 70
     0
  9
$DIMSE2
 70
     0
  9
$DIMTAD
 70
     0
  9
$DIMZIN
 70
     0
  9
$DIMBLK
  1

  9
$DIMASO
 70
     1
  9
$DIMSHO
 70
     1
  9
$DIMPOST
  1
"
  9
$DIMAPOST
  1
mm
  9
$DIMALT
 70
     1
  9
$DIMALTD
 70
     0
  9
$DIMALTF
 40
25.4
  9
$DIMLFAC
 40
1.0
  9
$DIMTOFL
 70
     0
  9
$DIMTVP
 40
0.0
  9
$DIMTIX
 70
     0
  9
$DIMSOXD
 70
     0
  9
$DIMSAH
 70
     0
  9
$DIMBLK1
  1

  9
$DIMBLK2
  1

  9
$DIMSTYLE
  2
spec dim2
  9
$DIMCLRD
 70
     0
  9
$DIMCLRE
 70
   256
  9
$DIMCLRT
 70
     0
  9
$DIMTFAC
 40
1.0
  9
$DIMGAP
 40
0.09
  9
$DIMJUST
 70
     0
  9
$DIMSD1
 70
     0
  9
$DIMSD2
 70
     0
  9
$DIMTOLJ
 70
     1
  9
$DIMTZIN
 70
     0
  9
$DIMALTZ
 70
     0
  9
$DIMALTTZ
 70
     0
  9
$DIMUPT
 70
     0
  9
$DIMDEC
 70
     4
  9
$DIMTDEC
 70
     4
  9
$DIMALTU
 70
     2
  9
$DIMALTTD
 70
     0
  9
$DIMTXSTY
  7
Standard
  9
$DIMAUNIT
 70
     0
  9
$DIMADEC
 70
     0
  9
$DIMALTRND
 40
0.0
  9
$DIMAZIN
 70
     0
  9
$DIMDSEP
 70
    46
  9
$DIMATFIT
 70
     3
  9
$DIMFRAC
 70
     2
  9
$DIMLDRBLK
  1

  9
$DIMLUNIT
 70
     5
  9
$DIMLWD
 70
    -1
  9
$DIMLWE
 70
    -1
  9
$DIMTMOVE
 70
     0
  9
$LUNITS
 70
     2
  9
$LUPREC
 70
     4
  9
$SKETCHINC
 40
0.1
  9
$FILLETRAD
 40
1.0
  9
$AUNITS
 70
     0
  9
$AUPREC
 70
     0
  9
$MENU
  1
.
  9
$ELEVATION
 40
0.0
  9
$PELEVATION
 40
0.0
  9
$THICKNESS
 40
0.0
  9
$LIMCHECK
 70
     0
  9
$CHAMFERA
 40
0.0
  9
$CHAMFERB
 40
0.0
  9
$CHAMFERC
 40
0.0
  9
$CHAMFERD
 40
0.0
  9
$SKPOLY
 70
     0
  9
$TDCREATE
 40
2455044.600454803
  9
$TDUCREATE
 40
2455044.767121470
  9
$TDUPDATE
 40
2456127.574911146
  9
$TDUUPDATE
 40
2456127.741577812
  9
$TDINDWG
 40
0.2417069792
  9
$TDUSRTIMER
 40
0.2416973958
  9
$USRTIMER
 70
     1
  9
$ANGBASE
 50
0.0
  9
$ANGDIR
 70
     0
  9
$PDMODE
 70
     0
  9
$PDSIZE
 40
0.0
  9
$PLINEWID
 40
0.0
  9
$SPLFRAME
 70
     0
  9
$SPLINETYPE
 70
     6
  9
$SPLINESEGS
 70
     8
  9
$HANDSEED
  5
18FD9
  9
$SURFTAB1
 70
     6
  9
$SURFTAB2
 70
     6
  9
$SURFTYPE
 70
     6
  9
$SURFU
 70
     6
  9
$SURFV
 70
     6
  9
$UCSBASE
  2

  9
$UCSNAME
  2

  9
$UCSORG
 10
0.0
 20
0.0
 30
0.0
  9
$UCSXDIR
 10
1.0
 20
0.0
 30
0.0
  9
$UCSYDIR
 10
0.0
 20
1.0
 30
0.0
  9
$UCSORTHOREF
  2

  9
$UCSORTHOVIEW
 70
     0
  9
$UCSORGTOP
 10
0.0
 20
0.0
 30
0.0
  9
$UCSORGBOTTOM
 10
0.0
 20
0.0
 30
0.0
  9
$UCSORGLEFT
 10
0.0
 20
0.0
 30
0.0
  9
$UCSORGRIGHT
 10
0.0
 20
0.0
 30
0.0
  9
$UCSORGFRONT
 10
0.0
 20
0.0
 30
0.0
  9
$UCSORGBACK
 10
0.0
 20
0.0
 30
0.0
  9
$PUCSBASE
  2

  9
$PUCSNAME
  2

  9
$PUCSORG
 10
0.0
 20
0.0
 30
0.0
  9
$PUCSXDIR
 10
1.0
 20
0.0
 30
0.0
  9
$PUCSYDIR
 10
0.0
 20
1.0
 30
0.0
  9
$PUCSORTHOREF
  2

  9
$PUCSORTHOVIEW
 70
     0
  9
$PUCSORGTOP
 10
0.0
 20
0.0
 30
0.0
  9
$PUCSORGBOTTOM
 10
0.0
 20
0.0
 30
0.0
  9
$PUCSORGLEFT
 10
0.0
 20
0.0
 30
0.0
  9
$PUCSORGRIGHT
 10
0.0
 20
0.0
 30
0.0
  9
$PUCSORGFRONT
 10
0.0
 20
0.0
 30
0.0
  9
$PUCSORGBACK
 10
0.0
 20
0.0
 30
0.0
  9
$USERI1
 70
     0
  9
$USERI2
 70
     0
  9
$USERI3
 70
     0
  9
$USERI4
 70
     0
  9
$USERI5
 70
     0
  9
$USERR1
 40
0.0
  9
$USERR2
 40
0.0
  9
$USERR3
 40
0.0
  9
$USERR4
 40
0.0
  9
$USERR5
 40
0.0
  9
$WORLDVIEW
 70
     1
  9
$SHADEDGE
 70
     3
  9
$SHADEDIF
 70
    70
  9
$TILEMODE
 70
     1
  9
$MAXACTVP
 70
    64
  9
$PINSBASE
 10
0.0
 20
0.0
 30
0.0
  9
$PLIMCHECK
 70
     0
  9
$PEXTMIN
 10
1.07500002421732
 20
0.8249999641433474
 30
0.0
  9
$PEXTMAX
 10
9.675000217955883
 20
7.424999677290128
 30
0.0
  9
$PLIMMIN
 10
-0.1249995194082185
 20
-0.1249999981226884
  9
$PLIMMAX
 10
10.87500024029589
 20
8.37499976158142
  9
$UNITMODE
 70
     0
  9
$VISRETAIN
 70
     1
  9
$PLINEGEN
 70
     0
  9
$PSLTSCALE
 70
     1
  9
$TREEDEPTH
 70
  3020
  9
$CMLSTYLE
  2
Standard
  9
$CMLJUST
 70
     0
  9
$CMLSCALE
 40
1.0
  9
$PROXYGRAPHICS
 70
     1
  9
$MEASUREMENT
 70
     0
  9
$CELWEIGHT
370
    -1
  9
$ENDCAPS
280
     0
  9
$JOINSTYLE
280
     0
  9
$LWDISPLAY
290
     0
  9
$INSUNITS
 70
     1
  9
$HYPERLINKBASE
  1

  9
$STYLESHEET
  1

  9
$XEDIT
290
     1
  9
$CEPSNTYPE
380
     0
  9
$PSTYLEMODE
290
     1
  9
$FINGERPRINTGUID
  2
{0AA5F155-E85D-42F7-BFBC-72635F5EBCA5}
  9
$VERSIONGUID
  2
{9101CED6-3841-42A4-B2C2-C8055210E15E}
  9
$EXTNAMES
290
     1
  9
$PSVPSCALE
 40
0.0
  9
$OLESTARTUP
290
     0
  0
ENDSEC
  0
SECTION
  2
CLASSES
  0
CLASS
  1
ACDBDICTIONARYWDFLT
  2
AcDbDictionaryWithDefault
  3
ObjectDBX Classes
 90
        0
280
     0
281
     0
  0
CLASS
  1
ACDBPLACEHOLDER
  2
AcDbPlaceHolder
  3
ObjectDBX Classes
 90
        0
280
     0
281
     0
  0
CLASS
  1
LAYOUT
  2
AcDbLayout
  3
ObjectDBX Classes
 90
        0
280
     0
281
     0
  0
CLASS
  1
DICTIONARYVAR
  2
AcDbDictionaryVar
  3
ObjectDBX Classes
 90
        0
280
     0
281
     0
  0
CLASS
  1
TABLESTYLE
  2
AcDbTableStyle
  3
ObjectDBX Classes
 90
     4095
280
     0
281
     0
  0
CLASS
  1
SORTENTSTABLE
  2
AcDbSortentsTable
  3
ObjectDBX Classes
 90
        0
280
     0
281
     0
  0
CLASS
  1
DIMASSOC
  2
AcDbDimAssoc
  3
"AcDbDimAssoc|Product Desc:     AcDim ARX App For Dimension|Company:          Autodesk, Inc.|WEB Address:      www.autodesk.com"
 90
    32768
280
     0
281
     0
  0
CLASS
  1
MATERIAL
  2
AcDbMaterial
  3
ObjectDBX Classes
 90
     1153
280
     0
281
     0
  0
CLASS
  1
PLOTSETTINGS
  2
AcDbPlotSettings
  3
ObjectDBX Classes
 90
        0
280
     0
281
     0
  0
CLASS
  1
VISUALSTYLE
  2
AcDbVisualStyle
  3
ObjectDBX Classes
 90
     4095
280
     0
281
     0
  0
CLASS
  1
SCALE
  2
AcDbScale
  3
ObjectDBX Classes
 90
     1153
280
     0
281
     0
  0
CLASS
  1
MLEADERSTYLE
  2
AcDbMLeaderStyle
  3
ACDB_MLEADERSTYLE_CLASS
 90
     4095
280
     0
281
     0
  0
CLASS
  1
CELLSTYLEMAP
  2
AcDbCellStyleMap
  3
ObjectDBX Classes
 90
     1152
280
     0
281
     0
  0
ENDSEC
  0
SECTION
  2
TABLES
  0
TABLE
  2
VPORT
  5
8
102
{ACAD_XDICTIONARY
360
10D69
102
}
330
0
100
AcDbSymbolTable
 70
     1
  0
VPORT
  5
D2BC
330
8
100
AcDbSymbolTableRecord
100
AcDbViewportTableRecord
  2
*Active
 70
     0
 10
0.0
 20
0.0
 11
1.0
 21
1.0
 12
102.130501714819
 22
96.25255311916911
 13
0.0
 23
0.0
 14
0.5
 24
0.5
 15
0.5
 25
0.5
 16
0.0
 26
0.0
 36
1.0
 17
0.0
 27
0.0
 37
0.0
 40
87.62911504834466
 41
2.457627118644067
 42
50.0
 43
0.0
 44
0.0
 50
0.0
 51
0.0
 71
     0
 72
  1000
 73
     1
 74
     3
 75
     0
 76
     0
 77
     0
 78
     0
281
     0
 65
     1
110
0.0
120
0.0
130
0.0
111
1.0
121
0.0
131
0.0
112
0.0
122
1.0
132
0.0
 79
     0
146
0.0
1001
ACAD_NAV_VCDISPLAY
1070
     3
  0
ENDTAB
  0
TABLE
  2
LTYPE
  5
5
330
0
100
AcDbSymbolTable
 70
     1
  0
LTYPE
  5
14
330
5
100
AcDbSymbolTableRecord
100
AcDbLinetypeTableRecord
  2
ByBlock
 70
     0
  3

 72
    65
 73
     0
 40
0.0
  0
LTYPE
  5
15
330
5
100
AcDbSymbolTableRecord
100
AcDbLinetypeTableRecord
  2
ByLayer
 70
     0
  3

 72
    65
 73
     0
 40
0.0
  0
LTYPE
  5
16
330
5
100
AcDbSymbolTableRecord
100
AcDbLinetypeTableRecord
  2
Continuous
 70
     0
  3
Solid line
 72
    65
 73
     0
 40
0.0
  0
ENDTAB
  0
TABLE
  2
LAYER
  5
2
102
{ACAD_XDICTIONARY
360
97
102
}
330
0
100
AcDbSymbolTable
 70
     2
  0
LAYER
  5
10
102
{ACAD_XDICTIONARY
360
18F83
102
}
330
2
100
AcDbSymbolTableRecord
100
AcDbLayerTableRecord
  2
0
 70
     0
 62
     7
  6
Continuous
370
    -3
390
F
  0
LAYER
  5
152
102
{ACAD_XDICTIONARY
360
18F85
102
}
330
2
100
AcDbSymbolTableRecord
100
AcDbLayerTableRecord
  2
product
 70
     0
 62
     7
  6
Continuous
370
    18
390
F
  0
ENDTAB
  0
TABLE
  2
STYLE
  5
3
330
0
100
AcDbSymbolTable
 70
     1
  0
STYLE
  5
11
330
3
100
AcDbSymbolTableRecord
100
AcDbTextStyleTableRecord
  2
Standard
 70
     0
 40
0.0
 41
1.0
 50
0.0
 71
     0
 42
0.875
  3
ARIAL.TTF
  4

1001
ACAD
1000
Arial
1071
       34
  0
ENDTAB
  0
TABLE
  2
VIEW
  5
6
330
0
100
AcDbSymbolTable
 70
     0
  0
ENDTAB
  0
TABLE
  2
UCS
  5
7
330
0
100
AcDbSymbolTable
 70
     0
  0
ENDTAB
  0
TABLE
  2
APPID
  5
9
330
0
100
AcDbSymbolTable
 70
    26
  0
APPID
  5
12
330
9
100
AcDbSymbolTableRecord
100
AcDbRegAppTableRecord
  2
ACAD
 70
     0
  0
APPID
  5
8F
330
9
100
AcDbSymbolTableRecord
100
AcDbRegAppTableRecord
  2
ACAD_PSEXT
 70
     0
  0
APPID
  5
156
330
9
100
AcDbSymbolTableRecord
100
AcDbRegAppTableRecord
  2
ACAD_DSTYLE_DIMEXT_LENGTH
 70
     0
  0
APPID
  5
157
330
9
100
AcDbSymbolTableRecord
100
AcDbRegAppTableRecord
  2
ACAD_DSTYLE_DIMEXT_ENABLED
 70
     0
  0
APPID
  5
158
330
9
100
AcDbSymbolTableRecord
100
AcDbRegAppTableRecord
  2
ACAD_DSTYLE_DIMJOGGED_JOGANGLE_SYMBOL
 70
     0
  0
APPID
  5
159
330
9
100
AcDbSymbolTableRecord
100
AcDbRegAppTableRecord
  2
ACAD_DSTYLE_DIMARC_LENGTH_SYMBOL
 70
     0
  0
APPID
  5
15A
330
9
100
AcDbSymbolTableRecord
100
AcDbRegAppTableRecord
  2
AcAecLayerStandard
 70
     0
  0
APPID
  5
348
330
9
100
AcDbSymbolTableRecord
100
AcDbRegAppTableRecord
  2
ACAD_DIMASSOC_CALC_DIMLFAC
 70
     0
  0
APPID
  5
349
330
9
100
AcDbSymbolTableRecord
100
AcDbRegAppTableRecord
  2
ACAD_DIMASSOC_DIMLFAC
 70
     0
  0
APPID
  5
34A
330
9
100
AcDbSymbolTableRecord
100
AcDbRegAppTableRecord
  2
ACAD_DIMASSOC_OVERRIDDEN_DIMLFAC
 70
     0
  0
APPID
  5
370
330
9
100
AcDbSymbolTableRecord
100
AcDbRegAppTableRecord
  2
ACAD_DSTYLE_DIMTEXT_FILL
 70
     0
  0
APPID
  5
373
330
9
100
AcDbSymbolTableRecord
100
AcDbRegAppTableRecord
  2
ACAD_DSTYLE_DIM_LINETYPE
 70
     0
  0
APPID
  5
374
330
9
100
AcDbSymbolTableRecord
100
AcDbRegAppTableRecord
  2
ACAD_DSTYLE_DIM_EXT1_LINETYPE
 70
     0
  0
APPID
  5
375
330
9
100
AcDbSymbolTableRecord
100
AcDbRegAppTableRecord
  2
ACAD_DSTYLE_DIM_EXT2_LINETYPE
 70
     0
  0
APPID
  5
43D4
330
9
100
AcDbSymbolTableRecord
100
AcDbRegAppTableRecord
  2
AcadStringInfo
 70
     0
  0
APPID
  5
43D5
330
9
100
AcDbSymbolTableRecord
100
AcDbRegAppTableRecord
  2
GENIUS_GENBH_13
 70
     0
  0
APPID
  5
BA33
330
9
100
AcDbSymbolTableRecord
100
AcDbRegAppTableRecord
  2
DCO15
 70
     0
  0
APPID
  5
CA30
330
9
100
AcDbSymbolTableRecord
100
AcDbRegAppTableRecord
  2
ACAD_EXEMPT_FROM_CAD_STANDARDS
 70
     0
  0
APPID
  5
17C52
330
9
100
AcDbSymbolTableRecord
100
AcDbRegAppTableRecord
  2
ACDBBLOCKREPETAG
 70
     0
  0
APPID
  5
17C53
330
9
100
AcDbSymbolTableRecord
100
AcDbRegAppTableRecord
  2
ACDBATTR
 70
     0
  0
APPID
  5
17C54
330
9
100
AcDbSymbolTableRecord
100
AcDbRegAppTableRecord
  2
ACAD_DSTYLE_DIMJOGGED_JOGA
 70
     0
  0
APPID
  5
17C55
330
9
100
AcDbSymbolTableRecord
100
AcDbRegAppTableRecord
  2
ACAD_DIMASSOC_OVERRIDDEN_D
 70
     0
  0
APPID
  5
17C56
330
9
100
AcDbSymbolTableRecord
100
AcDbRegAppTableRecord
  2
CONTENTBLOCKDESCRIPTION
 70
     0
  0
APPID
  5
17C57
330
9
100
AcDbSymbolTableRecord
100
AcDbRegAppTableRecord
  2
CONTENTBLOCKICON
 70
     0
  0
APPID
  5
18F8C
330
9
100
AcDbSymbolTableRecord
100
AcDbRegAppTableRecord
  2
ACAD_NAV_VCDISPLAY
 70
     0
  0
APPID
  5
18FD8
330
9
100
AcDbSymbolTableRecord
100
AcDbRegAppTableRecord
  2
ACAD_MLEADERVER
 70
     0
  0
ENDTAB
  0
TABLE
  2
DIMSTYLE
  5
A
330
0
100
AcDbSymbolTable
 70
     1
100
AcDbDimStyleTable
 71
     1
340
C09A
  0
DIMSTYLE
105
C09A
330
A
100
AcDbSymbolTableRecord
100
AcDbDimStyleTableRecord
  2
spec dim2
 70
     0
  3
"
  4
mm
 41
1.8
 44
0.0625
140
1.8
170
     1
171
     0
177
   256
274
     0
276
     2
277
     5
340
11
371
    -1
372
    -1
1001
ACAD_DSTYLE_DIMJOGGED_JOGANGLE_SYMBOL
1070
   384
1040
0.7853981633974483
1001
ACAD_DSTYLE_DIMEXT_LENGTH
1070
   378
1040
0.18
1001
ACAD_DSTYLE_DIM_LINETYPE
1070
   380
1005
15
1001
ACAD_DSTYLE_DIM_EXT1_LINETYPE
1070
   381
1005
15
1001
ACAD_DSTYLE_DIM_EXT2_LINETYPE
1070
   382
1005
15
  0
ENDTAB
  0
TABLE
  2
BLOCK_RECORD
  5
1
330
0
100
AcDbSymbolTable
 70
     0
  0
BLOCK_RECORD
  5
1F
102
{ACAD_XDICTIONARY
360
C9C7
102
}
330
1
100
AcDbSymbolTableRecord
100
AcDbBlockTableRecord
  2
*Model_Space
340
22
  0
BLOCK_RECORD
  5
18E59
330
1
100
AcDbSymbolTableRecord
100
AcDbBlockTableRecord
  2
*Paper_Space
340
18E5A
  0
ENDTAB
  0
ENDSEC
  0
SECTION
  2
BLOCKS
  0
BLOCK
  5
20
330
1F
100
AcDbEntity
  8
0
100
AcDbBlockBegin
  2
*Model_Space
 70
     0
 10
0.0
 20
0.0
 30
0.0
  3
*Model_Space
  1

  0
ENDBLK
  5
21
330
1F
100
AcDbEntity
  8
0
100
AcDbBlockEnd
  0
BLOCK
  5
18E5B
330
18E59
100
AcDbEntity
 67
     1
  8
0
100
AcDbBlockBegin
  2
*Paper_Space
 70
     0
 10
0.0
 20
0.0
 30
0.0
  3
*Paper_Space
  1

  0
ENDBLK
  5
18E5C
330
18E59
100
AcDbEntity
 67
     1
  8
0
100
AcDbBlockEnd
  0
ENDSEC
  0
SECTION
  2
ENTITIES
  0
LWPOLYLINE
  5
17ED7
330
1F
100
AcDbEntity
  8
product
100
AcDbPolyline
 90
       14
 70
   128
 43
0.0
 10
46.62504610067458
 20
70.02491795019931
 10
46.561761925072
 20
70.02835137720272
 10
46.43556199627778
 20
70.03146771453585
 10
46.30650855378076
 20
70.03084908168239
 10
46.18320672484083
 20
70.02756759959033
 10
46.06882447286102
 20
70.02298138590399
 10
45.95775098265812
 20
70.01773048656284
 10
45.85460913416159
 20
70.01269107811189
 10
45.76199900400161
 20
70.0086029386717
 10
45.6758303994286
 20
70.00553588076927
 10
45.59410633017864
 20
70.00345001153204
 10
45.52349125259683
 20
70.00251927561736
 10
45.45972601588505
 20
70.00236791736591
 10
45.45443434368144
 20
70.00236879735573
  0
LWPOLYLINE
  5
17ED8
330
1F
100
AcDbEntity
  8
product
100
AcDbPolyline
 90
       15
 70
   128
 43
0.0
 10
111.0219676752747
 20
67.41002302435524
 10
109.0166773472263
 20
67.48759999484618
 10
103.5364409220517
 20
67.70200570467982
 10
98.96856387722392
 20
67.882252995781
 10
94.19049598053858
 20
68.07224382765745
 10
89.00976937540121
 20
68.27982770963069
 10
83.88260129821764
 20
68.48675555918245
 10
78.80879463126507
 20
68.69285871159464
 10
73.78404479656251
 20
68.89815315334907
 10
68.76730161811611
 20
69.10420423969601
 10
63.76284577668366
 20
69.31074430706079
 10
58.77072211278892
 20
69.51767890320144
 10
54.4643874332678
 20
69.69682870031428
 10
49.93632816846162
 20
69.88573787801941
 10
46.68800174673902
 20
70.02160214850376
  0
LINE
  5
17ED9
330
1F
100
AcDbEntity
  8
product
100
AcDbLine
 10
46.68828334348586
 20
70.02270506909607
 30
0.0
 11
46.62515169945459
 21
70.02598215123888
 31
0.0
  0
LINE
  5
17EDA
330
1F
100
AcDbEntity
  8
product
100
AcDbLine
 10
39.99886126836037
 20
70.00132738040534
 30
0.0
 11
40.05617425443694
 21
69.80073196661738
 31
0.0
  0
ARC
  5
17EDB
330
1F
100
AcDbEntity
  8
product
100
AcDbCircle
 10
40.52077445807777
 20
69.60772676151676
 30
0.0
 40
0.3937007875593321
100
AcDbArc
 50
90.01176198882767
 51
196.1133592626857
  0
LWPOLYLINE
  5
17EDC
330
1F
100
AcDbEntity
  8
product
100
AcDbPolyline
 90
       31
 70
   128
 43
0.0
 10
45.46044408758985
 20
70.00182584362794
 10
45.40098728110637
 20
70.00208720060874
 10
45.08878096774037
 20
70.00242570336493
 10
44.80769344155419
 20
70.00230895804698
 10
44.5203896671785
 20
70.00220159928716
 10
44.24721735622187
 20
70.00215114653665
 10
43.95617538503006
 20
70.00209746715679
 10
43.67651696233474
 20
70.00204525442665
 10
43.40818576878632
 20
70.00199450834623
 10
43.15118415102415
 20
70.00194581557534
 10
42.90549568257188
 20
70.00189888278427
 10
42.67318305960043
 20
70.00185429663265
 10
42.45163447228174
 20
70.00181147046063
 10
42.241197223271
 20
70.00177069759836
 10
42.04219280218694
 20
70.00173168471571
 10
41.85491688561433
 20
70.00169501847259
 10
41.67966280349787
 20
70.0016604055391
 10
41.51671215258443
 20
70.00162813924524
 10
41.36626674387571
 20
70.00159792626082
 10
41.22850492197881
 20
70.00157035324602
 10
41.10346423312626
 20
70.00154542020077
 10
40.99006756976087
 20
70.00152254046515
 10
40.88832197180136
 20
70.00150200736896
 10
40.79903468325574
 20
70.0014841142423
 10
40.72217050453059
 20
70.00146856775518
 10
40.65771066250954
 20
70.00145536790779
 10
40.60563873071555
 20
70.00144480802974
 10
40.5659570557882
 20
70.00143688812123
 10
40.53865859780922
 20
70.00143131485225
 10
40.52375039669641
 20
70.00142808822291
 10
40.52052350685023
 20
70.0014274690959
  0
ARC
  5
17EDD
330
1F
100
AcDbEntity
  8
product
100
AcDbCircle
 10
111.1591889461153
 20
70.36046782544926
 30
0.0
 40
2.953660493696958
100
AcDbArc
 50
267.3416123132262
 51
273.8716870069369
  0
LINE
  5
17EDF
330
1F
100
AcDbEntity
  8
product
100
AcDbLine
 10
46.68800409337859
 20
70.02272442887235
 30
0.0
 11
46.62518689904823
 21
70.02599887104572
 31
0.0
  0
LINE
  5
17EE0
330
1F
100
AcDbEntity
  8
product
100
AcDbLine
 10
111.9546207945195
 20
66.35860134380161
 30
0.0
 11
111.9706061031893
 21
66.3593375288453
 31
0.0
  0
LINE
  5
17EE1
330
1F
100
AcDbEntity
  8
product
100
AcDbLine
 10
41.03964033042529
 20
66.35860134380161
 30
0.0
 11
111.9546207945195
 21
66.35860134380161
 31
0.0
  0
LINE
  5
17EE2
330
1F
100
AcDbEntity
  8
product
100
AcDbLine
 10
48.48951850866729
 20
44.60860134380161
 30
0.0
 11
107.9895185086674
 21
44.60860134380161
 31
0.0
  0
ARC
  5
17EE3
330
1F
100
AcDbEntity
  8
product
100
AcDbCircle
 10
113.3135799009062
 20
66.73184277194358
 30
0.0
 40
0.9046470813859597
100
AcDbArc
 50
204.1468427381185
 51
204.3671582014222
  0
LINE
  5
17EE4
330
1F
100
AcDbEntity
  8
product
100
AcDbLine
 10
112.4895185086691
 20
66.35860134380161
 30
0.0
 11
111.9546207945195
 21
66.35860134414381
 31
0.0
  0
LWPOLYLINE
  5
17EE5
330
1F
100
AcDbEntity
  8
product
100
AcDbPolyline
 90
        4
 70
   128
 43
0.0
 10
112.1061855502973
 20
67.20878225577251
 10
112.2623966523999
 20
66.8623280947072
 10
112.4024300213893
 20
66.55175507913984
 10
112.488089405178
 20
66.36177280109693
  0
LINE
  5
17EE6
330
1F
100
AcDbEntity
  8
product
100
AcDbLine
 10
112.1020953575476
 20
67.21756396765875
 30
0.0
 11
112.1061855502973
 21
67.20878225577251
 31
0.0
  0
LINE
  5
17EEC
330
1F
100
AcDbEntity
  8
product
100
AcDbLine
 10
40.1270736706972
 20
109.8339800861844
 30
0.0
 11
40.1270736706972
 21
109.4234767026202
 31
0.0
  0
LINE
  5
17EED
330
1F
100
AcDbEntity
  8
product
100
AcDbLine
 10
112.2828814760037
 20
125.4351053209992
 30
0.0
 11
112.4895188248838
 21
125.4156539209326
 31
0.0
  0
LINE
  5
17EEE
330
1F
100
AcDbEntity
  8
product
100
AcDbLine
 10
112.4895188248838
 20
125.208103081578
 30
0.0
 11
112.4895188248838
 21
125.4156539209326
 31
0.0
  0
LINE
  5
17EEF
330
1F
100
AcDbEntity
  8
product
100
AcDbLine
 10
50.27508461651814
 20
95.42394002646032
 30
0.0
 11
49.95748874541277
 21
95.41374027730219
 31
0.0
  0
LINE
  5
17EF0
330
1F
100
AcDbEntity
  8
product
100
AcDbLine
 10
112.4876994309045
 20
95.83952342028963
 30
0.0
 11
112.4874885054723
 21
95.66516574621232
 31
0.0
  0
LINE
  5
17EF1
330
1F
100
AcDbEntity
  8
product
100
AcDbLine
 10
112.3139039154809
 20
95.64876351719751
 30
0.0
 11
112.4874885054723
 21
95.66516574621232
 31
0.0
  0
LINE
  5
17EF2
330
1F
100
AcDbEntity
  8
product
100
AcDbLine
 10
109.087162237234
 20
98.33809418430796
 30
0.0
 11
109.087162237234
 21
98.05028619979378
 31
0.0
  0
LINE
  5
17EF3
330
1F
100
AcDbEntity
  8
product
100
AcDbLine
 10
49.82576430121913
 20
95.70291123543583
 30
0.0
 11
49.95748874541277
 21
95.41374027730219
 31
0.0
  0
LINE
  5
17EF4
330
1F
100
AcDbEntity
  8
product
100
AcDbLine
 10
108.6844167288373
 20
123.0526324284913
 30
0.0
 11
109.0871622372342
 21
123.0303010305118
 31
0.0
  0
LINE
  5
17EF5
330
1F
100
AcDbEntity
  8
product
100
AcDbLine
 10
109.0871622372342
 20
122.6269368825394
 30
0.0
 11
109.0871622372342
 21
123.0303010305118
 31
0.0
  0
LINE
  5
17EF6
330
1F
100
AcDbEntity
  8
product
100
AcDbLine
 10
108.7997955916364
 20
98.03435362473479
 30
0.0
 11
109.087162237234
 21
98.05028619979378
 31
0.0
  0
LINE
  5
17EF7
330
1F
100
AcDbEntity
  8
product
100
AcDbLine
 10
104.5645961467562
 20
100.3152224149238
 30
0.0
 11
104.5645961467562
 21
99.90457411257082
 31
0.0
  0
LINE
  5
17EF8
330
1F
100
AcDbEntity
  8
product
100
AcDbLine
 10
50.16650763621237
 20
125.6604256211059
 30
0.0
 11
49.93239532865686
 21
125.6679918620144
 31
0.0
  0
LINE
  5
17EF9
330
1F
100
AcDbEntity
  8
product
100
AcDbLine
 10
104.154297725129
 20
99.88762614998979
 30
0.0
 11
104.5645961467562
 21
99.90457411257082
 31
0.0
  0
LINE
  5
17EFA
330
1F
100
AcDbEntity
  8
product
100
AcDbLine
 10
104.564596146756
 20
120.8278811353012
 30
0.0
 11
104.564596146756
 21
121.1759162424102
 31
0.0
  0
LINE
  5
17EFB
330
1F
100
AcDbEntity
  8
product
100
AcDbLine
 10
49.83884485439353
 20
125.4532498556076
 30
0.0
 11
49.93239532865686
 21
125.6679918620144
 31
0.0
  0
LINE
  5
17EFC
330
1F
100
AcDbEntity
  8
product
100
AcDbLine
 10
45.11175258958883
 20
91.68828322321759
 30
0.0
 11
45.10644510385555
 21
91.68795924330952
 31
0.0
  0
LINE
  5
17EFD
330
1F
100
AcDbEntity
  8
product
100
AcDbLine
 10
104.2168576025997
 20
121.190280806044
 30
0.0
 11
104.564596146756
 21
121.1759162424102
 31
0.0
  0
LINE
  5
17EFE
330
1F
100
AcDbEntity
  8
product
100
AcDbLine
 10
55.37541890334319
 20
110.8186437189103
 30
0.0
 11
55.37541890334319
 21
109.5560466953669
 31
0.0
  0
LINE
  5
17EFF
330
1F
100
AcDbEntity
  8
product
100
AcDbLine
 10
53.23312090620561
 20
110.8186437189103
 30
0.0
 11
53.23312090620561
 21
109.4234767026202
 31
0.0
  0
LINE
  5
17F00
330
1F
100
AcDbEntity
  8
product
100
AcDbLine
 10
46.68900897417507
 20
90.86910249300677
 30
0.0
 11
46.69697016683949
 21
90.86299501350817
 31
0.0
  0
LINE
  5
17F01
330
1F
100
AcDbEntity
  8
product
100
AcDbLine
 10
42.69653628767469
 20
124.3288469702662
 30
0.0
 11
43.16613626330286
 21
123.846711365092
 31
0.0
  0
LINE
  5
17F02
330
1F
100
AcDbEntity
  8
product
100
AcDbLine
 10
45.87950535130608
 20
90.81748984622871
 30
0.0
 11
45.61844893860938
 21
90.80084530949191
 31
0.0
  0
LINE
  5
17F03
330
1F
100
AcDbEntity
  8
product
100
AcDbLine
 10
102.2304045760772
 20
118.5613715280657
 30
0.0
 11
102.2304045760772
 21
118.9182316568691
 31
0.0
  0
CIRCLE
  5
17F04
330
1F
100
AcDbEntity
  8
product
100
AcDbCircle
 10
100.2955465180684
 20
110.5402986638713
 30
0.0
 40
0.9822091189532374
  0
ARC
  5
17F05
330
1F
100
AcDbEntity
  8
product
100
AcDbCircle
 10
44.96744247540459
 20
91.67948020203372
 30
0.0
 40
0.1445783601992217
100
AcDbArc
 50
359.4691433858539
 51
3.490758410006299
  0
ARC
  5
17F06
330
1F
100
AcDbEntity
  8
product
100
AcDbCircle
 10
78.31138363327022
 20
110.540333248373
 30
0.0
 40
38.1908426472748
100
AcDbArc
 50
158.8357724436967
 51
168.6466199453161
  0
ARC
  5
17F07
330
1F
100
AcDbEntity
  8
product
100
AcDbCircle
 10
77.82116233807733
 20
110.6852137227679
 30
0.0
 40
24.66496875465991
100
AcDbArc
 50
210.349347237639
 51
211.0205586865861
  0
ARC
  5
17F08
330
1F
100
AcDbEntity
  8
product
100
AcDbCircle
 10
106.9857373388447
 20
100.0416088240448
 30
0.0
 40
2.069124159659375
100
AcDbArc
 50
299.9495067434208
 51
309.1545739972782
  0
ARC
  5
17F09
330
1F
100
AcDbEntity
  8
product
100
AcDbCircle
 10
99.76254158690586
 20
104.6677206238052
 30
0.0
 40
2.606791862318974
100
AcDbArc
 50
279.2440316281951
 51
300.6089532372837
  0
ARC
  5
17F0A
330
1F
100
AcDbEntity
  8
product
100
AcDbCircle
 10
100.6443355912352
 20
106.2957318658424
 30
0.0
 40
5.697025769535445
100
AcDbArc
 50
281.2220028594546
 51
282.9120680960766
  0
ARC
  5
17F0B
330
1F
100
AcDbEntity
  8
product
100
AcDbCircle
 10
77.82116233807733
 20
110.6852137227679
 30
0.0
 40
24.66496875465989
100
AcDbArc
 50
149.7442238403171
 51
150.289887814103
  0
ARC
  5
17F0C
330
1F
100
AcDbEntity
  8
product
100
AcDbCircle
 10
78.31138363327022
 20
110.540333248373
 30
0.0
 40
37.57988971885492
100
AcDbArc
 50
158.0097652928739
 51
162.4870938215201
  0
ARC
  5
17F0D
330
1F
100
AcDbEntity
  8
product
100
AcDbCircle
 10
91.26468287378793
 20
117.7357651779375
 30
0.0
 40
53.00064698458536
100
AcDbArc
 50
207.8054427368956
 51
210.5439956488403
  0
ARC
  5
17F0E
330
1F
100
AcDbEntity
  8
product
100
AcDbCircle
 10
79.14340561222275
 20
110.5488460434433
 30
0.0
 40
25.85403381846704
100
AcDbArc
 50
194.7200246291475
 51
198.3260303387183
  0
ARC
  5
17F0F
330
1F
100
AcDbEntity
  8
product
100
AcDbCircle
 10
78.35869799954207
 20
110.540303229619
 30
0.0
 40
32.12292694755826
100
AcDbArc
 50
198.5917953354715
 51
204.2779575825501
  0
ARC
  5
17F10
330
1F
100
AcDbEntity
  8
product
100
AcDbCircle
 10
51.22506998538688
 20
123.6511123775068
 30
0.0
 40
1.989620781535943
100
AcDbArc
 50
81.31703156387064
 51
156.755362973564
  0
ARC
  5
17F11
330
1F
100
AcDbEntity
  8
product
100
AcDbCircle
 10
58.24808268859055
 20
119.9442834685065
 30
0.0
 40
3.18799824105917
100
AcDbArc
 50
90.73316149638877
 51
111.9276406017744
  0
ARC
  5
17F12
330
1F
100
AcDbEntity
  8
product
100
AcDbCircle
 10
46.56250695539529
 20
128.5306478720485
 30
0.0
 40
1.692328945819599
100
AcDbArc
 50
87.84868798791881
 51
148.99282974593
  0
ARC
  5
17F13
330
1F
100
AcDbEntity
  8
product
100
AcDbCircle
 10
59.78824873856274
 20
103.6205514370017
 30
0.0
 40
3.151416825248156
100
AcDbArc
 50
200.4550562257071
 51
236.8232632838318
  0
ARC
  5
17F14
330
1F
100
AcDbEntity
  8
product
100
AcDbCircle
 10
77.87799728794789
 20
110.5402974865425
 30
0.0
 40
22.51938613260903
100
AcDbArc
 50
159.1338945446283
 51
200.8661207736893
  0
LWPOLYLINE
  5
17F15
330
1F
100
AcDbEntity
  8
product
100
AcDbPolyline
 90
       60
 70
   128
 43
0.0
 10
45.11730437156916
 20
129.3998934895558
 10
45.07085498815627
 20
129.3196067370352
 10
44.74928323631388
 20
128.743729656283
 10
44.45952018368166
 20
128.2036564285884
 10
44.16247316186082
 20
127.6236422222953
 10
43.88474602352153
 20
127.0568454633132
 10
43.59247910648059
 20
126.4333398127704
 10
43.3111404898616
 20
125.8039030307444
 10
43.04116664862272
 20
125.1694444400642
 10
42.78306915018697
 20
124.531146747067
 10
42.53722815016295
 20
123.8902536707185
 10
42.30189305544081
 20
123.2422115569562
 10
42.07865254100101
 20
122.5911176384488
 10
41.86745028749419
 20
121.9368663164159
 10
41.66823701548946
 20
121.2793555120368
 10
41.48097283211472
 20
120.6184772798918
 10
41.30563427097399
 20
119.9541582874949
 10
41.14221429214899
 20
119.2863633352525
 10
40.99068708260415
 20
118.6149821311055
 10
40.85104090914183
 20
117.9399002763753
 10
40.72326403856459
 20
117.2606390565922
 10
40.60864008271027
 20
116.5835572782986
 10
40.50619987944151
 20
115.9040766477169
 10
40.41568999168612
 20
115.2205090510148
 10
40.33728407077137
 20
114.5337655710007
 10
40.27113464826856
 20
113.8447675570313
 10
40.21735670951602
 20
113.1544439850414
 10
40.17605585329351
 20
112.4639454417395
 10
40.14727666575322
 20
111.7742207028318
 10
40.13104026665064
 20
111.0861874143845
 10
40.12732788287007
 20
110.4007861755314
 10
40.13588373069865
 20
109.7174814757923
 10
40.15687207490623
 20
109.0281629988581
 10
40.1902459827013
 20
108.3403999039561
 10
40.2359937208862
 20
107.6540804323772
 10
40.2941082495422
 20
106.9690945853921
 10
40.36459191530889
 20
106.2853328042666
 10
40.44745175810499
 20
105.6027414096206
 10
40.54269012456984
 20
104.9212678953942
 10
40.65033282773879
 20
104.2408046094975
 10
40.77040802728652
 20
103.5612441931706
 10
40.9031245741337
 20
102.8821378515985
 10
41.04701816519605
 20
102.2110816570302
 10
41.20330435976462
 20
101.5414046998622
 10
41.37214038268962
 20
100.8725420266209
 10
41.55335492928384
 20
100.2053800803992
 10
41.74674853518422
 20
99.54080589095035
 10
41.95208418979587
 20
98.87972584780341
 10
42.16904040349937
 20
98.22321119191679
 10
42.39731915307038
 20
97.57211844672905
 10
42.63660833544804
 20
96.92728418924273
 10
42.8865536080591
 20
96.28950041030874
 10
43.14772520431552
 20
95.65679241273882
 10
43.42210368800533
 20
95.02459246263327
 10
43.70780001428374
 20
94.39757858595108
 10
44.00484234282544
 20
93.77567803686599
 10
44.31341371151598
 20
93.15862681842764
 10
44.59034299240511
 20
92.63029852172127
 10
44.89153652632512
 20
92.07947299157146
 10
45.11756954183897
 20
91.68129284471579
  0
ARC
  5
17F16
330
1F
100
AcDbEntity
  8
product
100
AcDbCircle
 10
51.3279604465929
 20
111.6309360040461
 30
0.0
 40
19.26136459493617
100
AcDbArc
 50
102.0792595199578
 51
105.6298703437944
  0
ARC
  5
17F17
330
1F
100
AcDbEntity
  8
product
100
AcDbCircle
 10
51.25745765336706
 20
109.1734991727679
 30
0.0
 40
18.97641240859754
100
AcDbArc
 50
254.3423854283036
 51
257.958286175297
  0
ARC
  5
17F18
330
1F
100
AcDbEntity
  8
product
100
AcDbCircle
 10
46.53345763237121
 20
128.5814642760902
 30
0.0
 40
1.644381148784085
100
AcDbArc
 50
104.1742766929754
 51
149.9689207995034
  0
ARC
  5
17F19
330
1F
100
AcDbEntity
  8
product
100
AcDbCircle
 10
46.52442537739853
 20
92.47887226549527
 30
0.0
 40
1.623027063682817
100
AcDbArc
 50
209.5506732915192
 51
255.7028857019287
  0
LINE
  5
17F1A
330
1F
100
AcDbEntity
  8
product
100
AcDbLine
 10
59.97253478934635
 20
100.4517256079281
 30
0.0
 11
59.97280699953489
 21
100.4517256079281
 31
0.0
  0
LINE
  5
17F1B
330
1F
100
AcDbEntity
  8
product
100
AcDbLine
 10
59.97277766654065
 20
120.628847080099
 30
0.0
 11
59.97250428303209
 21
120.628847080099
 31
0.0
  0
LINE
  5
17F1C
330
1F
100
AcDbEntity
  8
product
100
AcDbLine
 10
101.7304811979859
 20
108.0502518557711
 30
0.0
 11
101.7302089877973
 21
108.0502518557711
 31
0.0
  0
ARC
  5
17F1D
330
1F
100
AcDbEntity
  8
product
100
AcDbCircle
 10
47.57015803387048
 20
129.1531912952535
 30
0.0
 40
1.340782235113772
100
AcDbArc
 50
86.44625600229884
 51
101.7455876563913
  0
LINE
  5
17F1E
330
1F
100
AcDbEntity
  8
product
100
AcDbLine
 10
46.13128263133899
 20
130.1738867883192
 30
0.0
 11
46.13962728160754
 21
130.1764387588386
 31
0.0
  0
LWPOLYLINE
  5
17F1F
330
1F
100
AcDbEntity
  8
product
100
AcDbPolyline
 90
        4
 70
   128
 43
0.0
 10
47.65326611592263
 20
90.58920199397581
 10
47.4754518500481
 20
90.58997638502997
 10
47.29892354265166
 20
90.61431103724734
 10
47.29846829457733
 20
90.61443540914389
  0
LINE
  5
17F20
330
1F
100
AcDbEntity
  8
product
100
AcDbLine
 10
46.13653206403045
 20
90.90440496605756
 30
0.0
 11
46.12378277131142
 21
90.90675395225513
 31
0.0
  0
ARC
  5
17F21
330
1F
100
AcDbEntity
  8
product
100
AcDbCircle
 10
-73.55369812620825
 20
-1834.277450580742
 30
0.0
 40
1968.503937007864
100
AcDbArc
 50
84.59252334244595
 51
86.46988607618899
  0
LINE
  5
17F22
330
1F
100
AcDbEntity
  8
product
100
AcDbLine
 10
111.9706061031893
 20
125.4642727141829
 30
0.0
 11
111.9546207945195
 21
125.4660057074965
 31
0.0
  0
LINE
  5
17F23
330
1F
100
AcDbEntity
  8
product
100
AcDbLine
 10
111.9546207945195
 20
95.61459162024597
 30
0.0
 11
111.9706061031893
 21
95.6163246135596
 31
0.0
  0
ARC
  5
17F24
330
1F
100
AcDbEntity
  8
product
100
AcDbCircle
 10
-73.55369812620756
 20
2055.358047908479
 30
0.0
 40
1968.503937007859
100
AcDbArc
 50
273.5301139238176
 51
275.4074766575541
  0
ARC
  5
17F25
330
1F
100
AcDbEntity
  8
product
100
AcDbCircle
 10
111.8989663648388
 20
124.8780810114888
 30
0.0
 40
0.5905531004221638
100
AcDbArc
 50
3.988163675931841
 51
83.03231281923606
  0
ARC
  5
17F26
330
1F
100
AcDbEntity
  8
product
100
AcDbCircle
 10
111.8989663504724
 20
96.20251632988431
 30
0.0
 40
0.5905531156970352
100
AcDbArc
 50
276.9676884038605
 51
356.0118351084607
  0
ARC
  5
17F27
330
1F
100
AcDbEntity
  8
product
100
AcDbCircle
 10
111.8989676438873
 20
124.8780825188932
 30
0.0
 40
0.5905511811023774
100
AcDbArc
 50
0.0000000000008142
 51
3.988028682626437
  0
LINE
  5
17F28
330
1F
100
AcDbEntity
  8
product
100
AcDbLine
 10
112.4895185086691
 20
124.8780821525729
 30
0.0
 11
112.4895185086691
 21
96.20251517516958
 31
0.0
  0
ARC
  5
17F29
330
1F
100
AcDbEntity
  8
product
100
AcDbCircle
 10
111.8989676438873
 20
96.20251480884927
 30
0.0
 40
0.5905511811024145
100
AcDbArc
 50
356.0119713173222
 51
0.0
  0
LWPOLYLINE
  5
17F2E
330
1F
100
AcDbEntity
  8
product
100
AcDbPolyline
 90
       77
 70
   128
 43
0.0
 10
108.5208136354861
 20
110.5402986638712
 10
108.5198397800695
 20
110.4427640005999
 10
108.5169229070989
 20
110.3458955996321
 10
108.5120841363302
 20
110.2503551766565
 10
108.5053539740777
 20
110.1567953541342
 10
108.4967816997719
 20
110.0658552613486
 10
108.4864236327623
 20
109.9781560611239
 10
108.4743525188758
 20
109.8942968798723
 10
108.4606504904961
 20
109.8148505909759
 10
108.4454090665663
 20
109.7403598181664
 10
108.4287338458666
 20
109.6713334155652
 10
108.4107374670955
 20
109.6082429110588
 10
108.3915443021499
 20
109.5515193530009
 10
108.371285762845
 20
109.5015501569159
 10
108.3501003009146
 20
109.4586766121949
 10
108.3281310613718
 20
109.4231916821197
 10
108.3055282291482
 20
109.3953377305576
 10
108.2824466824549
 20
109.3753049819777
 10
108.2590459927817
 20
109.3632303481315
 10
108.235483384979
 20
109.3591963280662
 10
108.2119207771764
 20
109.3632303481315
 10
108.1885200875028
 20
109.3753049819777
 10
108.1654385408096
 20
109.3953377305576
 10
108.1428357085863
 20
109.4231916821197
 10
108.1208664690434
 20
109.4586766121949
 10
108.099681007113
 20
109.5015501569159
 10
108.0794224678079
 20
109.5515193530009
 10
108.0602293028623
 20
109.6082429110588
 10
108.0422329240914
 20
109.6713334155652
 10
108.0255577033917
 20
109.7403598181664
 10
108.0103162794619
 20
109.8148505909759
 10
107.9966142510823
 20
109.8942968798723
 10
107.9845431371955
 20
109.9781560611239
 10
107.9741850701859
 20
110.0658552613486
 10
107.9656127958803
 20
110.1567953541342
 10
107.9588826336278
 20
110.2503551766565
 10
107.9540438628592
 20
110.3458955996321
 10
107.9511269898883
 20
110.4427640005999
 10
107.9501531344717
 20
110.5402986638713
 10
107.9511269898883
 20
110.6378333271425
 10
107.9540438628592
 20
110.7347017281105
 10
107.9588826336278
 20
110.830242151086
 10
107.9656127958803
 20
110.9238019736083
 10
107.9741850701859
 20
111.0147420663939
 10
107.9845431371955
 20
111.1024412666186
 10
107.9966142510823
 20
111.1863004478702
 10
108.0103162794619
 20
111.2657467367666
 10
108.0255577033917
 20
111.3402375095761
 10
108.0422329240914
 20
111.4092639121772
 10
108.0602293028623
 20
111.4723544166836
 10
108.0794224678079
 20
111.5290779747416
 10
108.099681007113
 20
111.5790471708265
 10
108.1208664690434
 20
111.6219207155477
 10
108.1428357085863
 20
111.6574056456227
 10
108.1654385408096
 20
111.6852595971848
 10
108.1885200875028
 20
111.7052923457648
 10
108.2119207771764
 20
111.7173669796109
 10
108.235483384979
 20
111.7214009996762
 10
108.2590459927817
 20
111.7173669796109
 10
108.2824466824549
 20
111.7052923457648
 10
108.3055282291482
 20
111.6852595971848
 10
108.3281310613718
 20
111.6574056456227
 10
108.3501003009146
 20
111.6219207155477
 10
108.371285762845
 20
111.5790471708265
 10
108.3915443021499
 20
111.5290779747416
 10
108.4107374670955
 20
111.4723544166836
 10
108.4287338458666
 20
111.4092639121772
 10
108.4454090665663
 20
111.3402375095761
 10
108.4606504904961
 20
111.2657467367666
 10
108.4743525188758
 20
111.1863004478702
 10
108.4864236327623
 20
111.1024412666186
 10
108.4967816997719
 20
111.0147420663939
 10
108.5053539740777
 20
110.9238019736083
 10
108.5120841363302
 20
110.830242151086
 10
108.5169229070989
 20
110.7347017281105
 10
108.5198397800695
 20
110.6378333271425
 10
108.5208136354861
 20
110.5402986638712
  0
LWPOLYLINE
  5
17F2F
330
1F
100
AcDbEntity
  8
product
100
AcDbPolyline
 90
       35
 70
   128
 43
0.0
 10
108.2961135112411
 20
109.3861686031469
 10
108.2866987933341
 20
109.3953377305576
 10
108.2640959611108
 20
109.4231916821197
 10
108.2421267215679
 20
109.4586766121949
 10
108.2209412596376
 20
109.5015501569159
 10
108.2006827203324
 20
109.5515193530009
 10
108.1814895553868
 20
109.6082429110588
 10
108.1634931766159
 20
109.6713334155652
 10
108.1468179559162
 20
109.7403598181664
 10
108.1315765319864
 20
109.8148505909759
 10
108.1178721569672
 20
109.8942968798723
 10
108.1058010430804
 20
109.9781560611239
 10
108.0954453227107
 20
110.0658552613486
 10
108.0868730484048
 20
110.1567953541342
 10
108.0801428861523
 20
110.2503551766565
 10
108.0753041153837
 20
110.3458955996321
 10
108.072387242413
 20
110.4427640005999
 10
108.0714110403567
 20
110.5402986638713
 10
108.072387242413
 20
110.6378333271425
 10
108.0753041153837
 20
110.7347017281105
 10
108.0801428861523
 20
110.830242151086
 10
108.0868730484048
 20
110.9238019736083
 10
108.0954453227107
 20
111.0147420663939
 10
108.1058010430804
 20
111.1024412666186
 10
108.1178721569672
 20
111.1863004478702
 10
108.1315765319864
 20
111.2657467367666
 10
108.1468179559162
 20
111.3402375095761
 10
108.1634931766159
 20
111.4092639121772
 10
108.1814895553868
 20
111.4723544166836
 10
108.2006827203324
 20
111.5290779747416
 10
108.2209412596376
 20
111.5790471708265
 10
108.2421267215679
 20
111.6219207155477
 10
108.2640959611108
 20
111.6574056456227
 10
108.2866987933341
 20
111.6852595971848
 10
108.2961135112411
 20
111.6944287245956
  0
ARC
  5
17F30
330
1F
100
AcDbEntity
  8
product
100
AcDbCircle
 10
59.90712052655249
 20
117.1414415864315
 30
0.0
 40
3.484085267930059
100
AcDbArc
 50
88.92439227502297
 51
121.9374966443371
  0
ARC
  5
17F31
330
1F
100
AcDbEntity
  8
product
100
AcDbCircle
 10
59.90739988197129
 20
103.9398156224705
 30
0.0
 40
3.484789620139002
100
AcDbArc
 50
238.0524202551354
 51
271.0712787866551
  0
ARC
  5
17F32
330
1F
100
AcDbEntity
  8
product
100
AcDbCircle
 10
59.73547669760319
 20
117.5019999496293
 30
0.0
 40
3.087636643813899
100
AcDbArc
 50
122.7739016908324
 51
159.934078864745
  0
ARC
  5
17F33
330
1F
100
AcDbEntity
  8
product
100
AcDbCircle
 10
59.73529802590156
 20
103.5784413067567
 30
0.0
 40
3.087415884235
100
AcDbArc
 50
200.0644963509042
 51
237.2138594322249
  0
ARC
  5
17F34
330
1F
100
AcDbEntity
  8
product
100
AcDbCircle
 10
78.13685920584521
 20
110.5402976732405
 30
0.0
 40
22.76171282872292
100
AcDbArc
 50
159.366233625787
 51
200.6337831366194
  0
LINE
  5
17F35
330
1F
100
AcDbEntity
  8
product
100
AcDbLine
 10
102.2304045961616
 20
104.5231827874407
 30
0.0
 11
102.2304045961616
 21
107.55025189848
 31
0.0
  0
LWPOLYLINE
  5
17F36
330
1F
100
AcDbEntity
  8
product
100
AcDbPolyline
 90
        9
 70
   128
 43
0.0
 10
101.5837810260123
 20
102.8026612763853
 10
101.7355569793501
 20
102.9805559146646
 10
101.8677126793429
 20
103.172654762189
 10
101.9449171208039
 20
103.3086114316061
 10
102.013401449667
 20
103.4508805614342
 10
102.0731633192929
 20
103.5994627383335
 10
102.1605052436448
 20
103.8934597153887
 10
102.2129197848141
 20
104.2013663984244
 10
102.2304045961616
 20
104.5231827874407
  0
ARC
  5
17F37
330
1F
100
AcDbEntity
  8
product
100
AcDbCircle
 10
99.82599441656043
 20
104.5207944438641
 30
0.0
 40
2.458006376224711
100
AcDbArc
 50
271.0630126222898
 51
315.6536043582154
  0
LWPOLYLINE
  5
17F38
330
1F
100
AcDbEntity
  8
product
100
AcDbPolyline
 90
       17
 70
   128
 43
0.0
 10
60.13645812235655
 20
100.4549088244887
 10
62.27575682232873
 20
100.5379235454955
 10
64.4622839900469
 20
100.6233283188923
 10
66.69604021217129
 20
100.7111231446789
 10
68.97702519537142
 20
100.8013080228556
 10
71.30523835298754
 20
100.8938829534221
 10
73.63784737148922
 20
100.9871313695417
 10
76.01601328038054
 20
101.0826847723674
 10
78.43973598799562
 20
101.1805437485588
 10
80.90901532933662
 20
101.2807077114561
 10
83.47564941269387
 20
101.3852927432809
 10
86.08971905473822
 20
101.4922778007138
 10
88.75122366880987
 20
101.6016634704145
 10
91.4601632549086
 20
101.7134497523831
 10
94.2165389863544
 20
101.8276360599598
 10
97.02034851650751
 20
101.9442235664643
 10
99.87159536532727
 20
102.0632110985769
  0
ARC
  5
17F39
330
1F
100
AcDbEntity
  8
product
100
AcDbCircle
 10
59.93972095650724
 20
104.0152945497533
 30
0.0
 40
3.565817160917885
100
AcDbArc
 50
238.2572025923027
 51
273.1627914487302
  0
ARC
  5
17F3A
330
1F
100
AcDbEntity
  8
product
100
AcDbCircle
 10
59.73557681061311
 20
103.5784443477317
 30
0.0
 40
3.087422000913792
100
AcDbArc
 50
200.064514971377
 51
237.2137874189786
  0
ARC
  5
17F3B
330
1F
100
AcDbEntity
  8
product
100
AcDbCircle
 10
78.13711429855129
 20
110.5402976732376
 30
0.0
 40
22.76169571124037
100
AcDbArc
 50
159.36621740102
 51
200.6337993613864
  0
ARC
  5
17F3C
330
1F
100
AcDbEntity
  8
product
100
AcDbCircle
 10
59.73575008110993
 20
117.5019999496327
 30
0.0
 40
3.087636643810875
100
AcDbArc
 50
122.7739016908247
 51
159.9340788647981
  0
ARC
  5
17F3D
330
1F
100
AcDbEntity
  8
product
100
AcDbCircle
 10
59.93951880413987
 20
117.0658909727487
 30
0.0
 40
3.565215962508836
100
AcDbArc
 50
86.83321322802362
 51
121.7333363472692
  0
LWPOLYLINE
  5
17F3E
330
1F
100
AcDbEntity
  8
product
100
AcDbPolyline
 90
       20
 70
   128
 43
0.0
 10
99.87155077917556
 20
119.0167673029823
 10
97.42474491155235
 20
119.1187182319031
 10
95.01874710584434
 20
119.2186991569149
 10
92.65355970869109
 20
119.3167106646777
 10
90.32918037345281
 20
119.4127521685313
 10
88.04561027344925
 20
119.5068236684759
 10
85.80284823536112
 20
119.5989251645116
 10
83.72562167165984
 20
119.6839597555181
 10
81.68467298220662
 20
119.7672431667544
 10
79.68000275366126
 20
119.8487753982203
 10
77.71161098602442
 20
119.9285564499162
 10
75.77949694597055
 20
120.0065863218418
 10
73.66595861007908
 20
120.0916050730312
 10
71.59760881549914
 20
120.1744426227515
 10
69.57444765389618
 20
120.2550989710025
 10
67.59647514360335
 20
120.3335741177842
 10
65.66369128462088
 20
120.4098680630967
 10
63.7760960769483
 20
120.48398080694
 10
61.93368952058609
 20
120.555912349314
 10
60.13647102887421
 20
120.6256626902187
  0
LWPOLYLINE
  5
17F3F
330
1F
100
AcDbEntity
  8
product
100
AcDbPolyline
 90
        9
 70
   128
 43
0.0
 10
101.5840813958757
 20
118.2771205941108
 10
101.4119413044527
 20
118.4410140074668
 10
101.224156167096
 20
118.5853470067863
 10
101.0902709937488
 20
118.6707025007524
 10
100.9494327273912
 20
118.7473642818156
 10
100.8016390213833
 20
118.8153329366359
 10
100.5075534586849
 20
118.9179374046737
 10
100.1975248268288
 20
118.985082389009
 10
99.87155077917556
 20
119.0167673029823
  0
ARC
  5
17F40
330
1F
100
AcDbEntity
  8
product
100
AcDbCircle
 10
99.76692725610632
 20
116.6128523317688
 30
0.0
 40
2.464109984705292
100
AcDbArc
 50
358.7016350045548
 51
42.48548439095315
  0
LINE
  5
17F41
330
1F
100
AcDbEntity
  8
product
100
AcDbLine
 10
102.2304045961616
 20
113.5303454292626
 30
0.0
 11
102.2304045961616
 21
116.5570185448765
 31
0.0
  0
ARC
  5
17F42
330
1F
100
AcDbEntity
  8
product
100
AcDbCircle
 10
101.7304420889543
 20
113.5303080233506
 30
0.0
 40
0.4999625086086269
100
AcDbArc
 50
269.5889888643936
 51
0.0
  0
LINE
  5
17F43
330
1F
100
AcDbEntity
  8
product
100
AcDbLine
 10
100.3566903481353
 20
113.0402987436571
 30
0.0
 11
101.7268556398687
 21
113.030358378489
 31
0.0
  0
ARC
  5
17F44
330
1F
100
AcDbEntity
  8
product
100
AcDbCircle
 10
100.3570700428736
 20
110.5402986638709
 30
0.0
 40
2.500000108619676
100
AcDbArc
 50
90.00870196205717
 51
269.9912980379429
  0
LINE
  5
17F45
330
1F
100
AcDbEntity
  8
product
100
AcDbLine
 10
101.7268556398687
 20
108.0502389492536
 30
0.0
 11
100.3566903481353
 21
108.0402985840856
 31
0.0
  0
ARC
  5
17F46
330
1F
100
AcDbEntity
  8
product
100
AcDbCircle
 10
101.7304420889518
 20
107.550289304392
 30
0.0
 40
0.4999625086091742
100
AcDbArc
 50
0.0000000000008142
 51
90.41101113530675
  0
LINE
  5
17F47
330
1F
100
AcDbEntity
  8
product
100
AcDbLine
 10
58.06433432637437
 20
120.0981257977034
 30
0.0
 11
58.06406094286558
 21
120.0981257977034
 31
0.0
  0
LINE
  5
17F48
330
1F
100
AcDbEntity
  8
product
100
AcDbLine
 10
58.06371950681
 20
100.9828581389065
 30
0.0
 11
58.06344729662123
 21
100.9828581389065
 31
0.0
  0
LINE
  5
17F49
330
1F
100
AcDbEntity
  8
product
100
AcDbLine
 10
101.7265810830406
 20
108.0502389492536
 30
0.0
 11
100.3564181379463
 21
108.0402985840856
 31
0.0
  0
LINE
  5
17F4A
330
1F
100
AcDbEntity
  8
product
100
AcDbLine
 10
100.3564181379463
 20
113.0402987436571
 30
0.0
 11
101.7265810830406
 21
113.030358378489
 31
0.0
  0
LINE
  5
17F4B
330
1F
100
AcDbEntity
  8
product
100
AcDbLine
 10
101.7268556398687
 20
113.030358378489
 30
0.0
 11
101.7265810830406
 21
113.030358378489
 31
0.0
  0
ARC
  5
17F4C
330
1F
100
AcDbEntity
  8
product
100
AcDbCircle
 10
100.2978245983493
 20
110.5402986638712
 30
0.0
 40
0.9842519835724793
100
AcDbArc
 50
269.9336278057799
 51
90.06637219422009
  0
ARC
  5
17F4D
330
1F
100
AcDbEntity
  8
product
100
AcDbCircle
 10
100.2955465180684
 20
110.5402986638713
 30
0.0
 40
0.9842519685039508
100
AcDbArc
 50
89.93369746036252
 51
270.0663025412268
  0
LINE
  5
17F4E
330
1F
100
AcDbEntity
  8
product
100
AcDbLine
 10
100.2966844279954
 20
109.5560473406933
 30
0.0
 11
100.2955463078097
 21
109.5560466807009
 31
0.0
  0
LWPOLYLINE
  5
17F4F
330
1F
100
AcDbEntity
  8
product
100
AcDbPolyline
 90
        9
 70
   128
 43
0.0
 10
45.11339487006511
 20
129.4021533034502
 10
45.1123036826707
 20
129.4027751629331
 10
45.12996683862434
 20
129.3927456254618
 10
45.17692778946093
 20
129.3660537738084
 10
45.24894381085914
 20
129.3251119534384
 10
45.33951471124282
 20
129.2736149483362
 10
45.44046479839221
 20
129.2162126247861
 10
45.5426773776237
 20
129.1580887095718
 10
45.63692546219522
 20
129.1044891154257
  0
ARC
  5
17F50
330
1F
100
AcDbEntity
  8
product
100
AcDbCircle
 10
78.31110613211945
 20
110.5402986638711
 30
0.0
 40
37.57966526358317
100
AcDbArc
 50
150.3969282720085
 51
209.6030717279917
  0
LWPOLYLINE
  5
17F51
330
1F
100
AcDbEntity
  8
product
100
AcDbPolyline
 90
        9
 70
   128
 43
0.0
 10
45.11319540570275
 20
91.67881244670287
 10
45.11209483175025
 20
91.67818706726061
 10
45.12974625450602
 20
91.68822833792969
 10
45.17670016542365
 20
91.71492018958312
 10
45.24872088010101
 20
91.75585379671462
 10
45.33930586032238
 20
91.80733202870031
 10
45.44027237394857
 20
91.8647073658956
 10
45.5425084195756
 20
91.92279960147576
 10
45.63677997054265
 20
91.97636282270888
  0
LWPOLYLINE
  5
17F52
330
1F
100
AcDbEntity
  8
product
100
AcDbPolyline
 90
        8
 70
   128
 43
0.0
 10
45.6370897269644
 20
91.97594629418729
 10
46.19828857728066
 20
92.63428076905126
 10
46.74119302560211
 20
93.3159326278842
 10
47.27386377881089
 20
94.01172533669406
 10
47.78702926401274
 20
94.68923185674759
 10
48.30617868008767
 20
95.36141971824273
 10
48.83945721294162
 20
96.01777362931967
 10
49.39519777964597
 20
96.64708603944902
  0
LWPOLYLINE
  5
17F53
330
1F
100
AcDbEntity
  8
product
100
AcDbPolyline
 90
       11
 70
   128
 43
0.0
 10
51.5253973847316
 20
95.46266430865658
 10
51.25594684411407
 20
95.45269930377319
 10
50.98691869861681
 20
95.47282408462335
 10
50.7402986142597
 20
95.52043740125691
 10
50.5000989357336
 20
95.59640633699059
 10
50.27167704114936
 20
95.70020759120295
 10
50.07159316586876
 20
95.82252852480783
 10
49.88660522286522
 20
95.96802604400807
 10
49.72088084399411
 20
96.13395340720099
 10
49.54023653081276
 20
96.37441356271805
 10
49.39951090315367
 20
96.64016345275269
  0
LWPOLYLINE
  5
17F54
330
1F
100
AcDbEntity
  8
product
100
AcDbPolyline
 90
        3
 70
   128
 43
0.0
 10
51.54988456852038
 20
95.46488070971927
 10
51.5498822218808
 20
95.46488070971927
 10
51.5253973847316
 20
95.46266430865658
  0
LWPOLYLINE
  5
17F55
330
1F
100
AcDbEntity
  8
product
100
AcDbPolyline
 90
        8
 70
   128
 43
0.0
 10
51.54976019662377
 20
95.4647633777413
 10
50.92018026958476
 20
94.88804385338784
 10
50.25648020337121
 20
94.33004112614959
 10
49.56957891184697
 20
93.78512443440703
 10
48.87018411131544
 20
93.24759379067357
 10
48.12302580921846
 20
92.67667867926698
 10
47.3852822250285
 20
92.101172367565
 10
46.66827589461377
 20
91.51459578374776
  0
LWPOLYLINE
  5
17F56
330
1F
100
AcDbEntity
  8
product
100
AcDbPolyline
 90
        3
 70
   128
 43
0.0
 10
46.60447311166876
 20
91.50580292532357
 10
46.66816560255461
 20
91.51450426480497
 10
46.66816794919395
 20
91.51450426480497
  0
LWPOLYLINE
  5
17F57
330
1F
100
AcDbEntity
  8
product
100
AcDbPolyline
 90
        9
 70
   128
 43
0.0
 10
45.63704514081268
 20
91.97589701475658
 10
45.63704514081268
 20
91.97589466811704
 10
45.70171148711483
 20
91.86804076738781
 10
45.8112455817677
 20
91.74110047381292
 10
45.94310325853643
 20
91.63751863039918
 10
46.09167839551719
 20
91.56179961177844
 10
46.2516722805874
 20
91.51445381205446
 10
46.42796592402828
 20
91.49554341717569
 10
46.60447311166876
 20
91.50580292532357
  0
LWPOLYLINE
  5
17F58
330
1F
100
AcDbEntity
  8
product
100
AcDbPolyline
 90
        8
 70
   128
 43
0.0
 10
46.66827589461377
 20
129.566000370675
 10
47.3852822250285
 20
128.9794237868576
 10
48.12302580921846
 20
128.4039186484755
 10
48.87018411131544
 20
127.8330035370689
 10
49.56957891184697
 20
127.2954728933354
 10
50.25648020337121
 20
126.7505562015929
 10
50.92018026958476
 20
126.1925534743546
 10
51.54976019662377
 20
125.6158339500011
  0
LWPOLYLINE
  5
17F59
330
1F
100
AcDbEntity
  8
product
100
AcDbPolyline
 90
        3
 70
   128
 43
0.0
 10
51.52543727760416
 20
125.6179294991265
 10
51.5498822218808
 20
125.6157166180232
 10
51.54988456852038
 20
125.6157166180232
  0
LWPOLYLINE
  5
17F5A
330
1F
100
AcDbEntity
  8
product
100
AcDbPolyline
 90
       11
 70
   128
 43
0.0
 10
49.39952498299112
 20
124.440464381304
 10
49.53514666961132
 20
124.6984234280058
 10
49.6814737258951
 20
124.90013469782
 10
49.85324070162846
 20
125.0821330220265
 10
50.04589511606809
 20
125.2401932761009
 10
50.26214733790403
 20
125.374976039079
 10
50.4945467865391
 20
125.4820578953936
 10
50.73742398080117
 20
125.5597222782079
 10
50.99697639576266
 20
125.6088562172752
 10
51.26146848699431
 20
125.6278088516661
 10
51.52543727760416
 20
125.6179294991265
  0
LWPOLYLINE
  5
17F5B
330
1F
100
AcDbEntity
  8
product
100
AcDbPolyline
 90
        8
 70
   128
 43
0.0
 10
49.39519308636704
 20
124.4335148082528
 10
48.83945486630228
 20
125.0628260450623
 10
48.30617868008767
 20
125.7191799561393
 10
47.78702926401274
 20
126.3913666443147
 10
47.27386377881089
 20
127.0688719910484
 10
46.74118598568338
 20
127.7646752597363
 10
46.1982744974432
 20
128.4463353318077
 10
45.63706391392929
 20
129.1046780199101
  0
LWPOLYLINE
  5
17F5C
330
1F
100
AcDbEntity
  8
product
100
AcDbPolyline
 90
        9
 70
   128
 43
0.0
 10
46.60455055077432
 20
129.5747838425408
 10
46.49484045815484
 20
129.5845259166663
 10
46.31543751729918
 20
129.5765109692556
 10
46.14020220829934
 20
129.5366603362801
 10
45.98445104755001
 20
129.4676421469175
 10
45.84484476696025
 20
129.3701439665582
 10
45.72792579761812
 20
129.247596582236
 10
45.63704514081268
 20
129.1047026596254
 10
45.63704514081268
 20
129.1047003129859
  0
LWPOLYLINE
  5
17F5D
330
1F
100
AcDbEntity
  8
product
100
AcDbPolyline
 90
        3
 70
   128
 43
0.0
 10
46.66816794919395
 20
129.5660930629375
 10
46.66816560255461
 20
129.5660930629375
 10
46.60455055077432
 20
129.5747838425408
  0
ARC
  5
17F5E
330
1F
100
AcDbEntity
  8
product
100
AcDbCircle
 10
49.61275318689104
 20
120.934022132461
 30
0.0
 40
9.756176099800958
100
AcDbArc
 50
101.5864239271358
 51
107.8262468708366
  0
LWPOLYLINE
  5
17F5F
330
1F
100
AcDbEntity
  8
product
100
AcDbPolyline
 90
        6
 70
   128
 43
0.0
 10
46.13962728160754
 20
130.1764387588386
 10
46.18553459128247
 20
130.1904857432333
 10
46.46373575081201
 20
130.2244908970694
 10
46.62603168928899
 20
130.2217840483392
 10
46.62603403592856
 20
130.2217840483392
 10
46.62603403592856
 20
130.2217840483392
  0
ARC
  5
17F60
330
1F
100
AcDbEntity
  8
product
100
AcDbCircle
 10
46.51602700743024
 20
92.32830780215367
 30
0.0
 40
1.473606358127103
100
AcDbArc
 50
255.076565360741
 51
274.2812026251233
  0
ARC
  5
17F61
330
1F
100
AcDbEntity
  8
product
100
AcDbCircle
 10
49.61286842227514
 20
100.1470751210407
 30
0.0
 40
9.756688983058417
100
AcDbArc
 50
252.1737068328752
 51
258.4135027890996
  0
LWPOLYLINE
  5
17F62
330
1F
100
AcDbEntity
  8
product
100
AcDbPolyline
 90
        9
 70
   128
 43
0.0
 10
46.60455055077432
 20
129.5747838425408
 10
46.61327535665122
 20
129.6642928885247
 10
46.62109670629843
 20
129.7660502196819
 10
46.62743732638432
 20
129.8725747491015
 10
46.63183023563692
 20
129.9760345672582
 10
46.63395394443705
 20
130.0688230420245
 10
46.63365122793424
 20
130.1441196655248
 10
46.63094555252359
 20
130.1963875417218
 10
46.62603403592856
 20
130.2217840483392
  0
ARC
  5
17F63
330
1F
100
AcDbEntity
  8
product
100
AcDbCircle
 10
43.08767636928905
 20
91.06524162802935
 30
0.0
 40
3.544336737165966
100
AcDbArc
 50
356.6610664849637
 51
7.140452089261548
  0
LINE
  5
17F64
330
1F
100
AcDbEntity
  8
product
100
AcDbLine
 10
46.62703839765936
 20
130.22172655567
 30
0.0
 11
46.69651770169525
 21
130.2176293230016
 31
0.0
  0
ARC
  5
17F65
330
1F
100
AcDbEntity
  8
product
100
AcDbCircle
 10
41.46608319315783
 20
130.1188319367654
 30
0.0
 40
5.23136751448663
100
AcDbArc
 50
353.9348883933474
 51
1.082128103324718
  0
LWPOLYLINE
  5
17F66
330
1F
100
AcDbEntity
  8
product
100
AcDbPolyline
 90
        8
 70
   128
 43
0.0
 10
111.0043491054725
 20
124.7762966617409
 10
102.1452356600405
 20
125.540733270904
 10
93.28408415815216
 20
126.2766945823494
 10
84.42053439063533
 20
126.9800939232869
 10
74.96966496121877
 20
127.6910682167178
 10
65.5159691511194
 20
128.3604412840631
 10
56.09359943913841
 20
128.9848363109984
 10
46.66862319726829
 20
129.5660660765825
  0
ARC
  5
17F67
330
1F
100
AcDbEntity
  8
product
100
AcDbCircle
 10
-76.51016220689098
 20
-1916.605938859183
 30
0.0
 40
2050.528372210477
100
AcDbArc
 50
84.7520110889827
 51
86.55528917923531
  0
ARC
  5
17F68
330
1F
100
AcDbEntity
  8
product
100
AcDbCircle
 10
104.8555988948203
 20
125.5051587078082
 30
0.0
 40
6.191798529926085
100
AcDbArc
 50
353.23980440572
 51
358.3502816564762
  0
ARC
  5
17F69
330
1F
100
AcDbEntity
  8
product
100
AcDbCircle
 10
-75.68896753505282
 20
2126.882410842417
 30
0.0
 40
2039.694432893691
100
AcDbArc
 50
273.4399329908184
 51
275.2528026192974
  0
ARC
  5
17F6A
330
1F
100
AcDbEntity
  8
product
100
AcDbCircle
 10
41.46761440624368
 20
90.96183728837422
 30
0.0
 40
5.230116822992107
100
AcDbArc
 50
358.9170053029237
 51
6.065969238114632
  0
LWPOLYLINE
  5
17F6B
330
1F
100
AcDbEntity
  8
product
100
AcDbPolyline
 90
        8
 70
   128
 43
0.0
 10
46.66862085062871
 20
91.51453125115995
 10
55.57140877819597
 20
92.06240940202475
 10
64.47199673117779
 20
92.64886865386412
 10
73.37016038549882
 20
93.2732754139973
 10
82.93087703928405
 20
93.98576211662343
 10
92.48869067993883
 20
94.73932439807427
 10
102.0444826906141
 20
95.53132346216685
 10
111.0043420655538
 20
96.30429949268178
  0
ARC
  5
17F6C
330
1F
100
AcDbEntity
  8
product
100
AcDbCircle
 10
104.8575864296724
 20
95.57561716211498
 30
0.0
 40
6.190260575499958
100
AcDbArc
 50
1.648855348194523
 51
6.76059069101711
  0
LWPOLYLINE
  5
17F6D
330
1F
100
AcDbEntity
  8
product
100
AcDbPolyline
 90
        3
 70
   128
 43
0.0
 10
46.69697060313001
 20
90.86299499109573
 10
46.69651770169525
 20
90.86296800474086
 10
46.62594955690451
 20
90.85880741280433
  0
ARC
  5
17F6E
330
1F
100
AcDbEntity
  8
product
100
AcDbCircle
 10
78.35136660959097
 20
110.5402986638713
 30
0.0
 40
32.11544359985009
100
AcDbArc
 50
154.3690392828556
 51
205.6309607171451
  0
LWPOLYLINE
  5
17F6F
330
1F
100
AcDbEntity
  8
product
100
AcDbPolyline
 90
        3
 70
   128
 43
0.0
 10
106.8786047664232
 20
123.1527623502811
 10
107.1492591331344
 20
123.1229576812539
 10
107.4181746399326
 20
123.0624190739344
  0
ARC
  5
17F70
330
1F
100
AcDbEntity
  8
product
100
AcDbCircle
 10
-22.02897427819039
 20
-2149.98135472296
 30
0.0
 40
2276.786303719182
100
AcDbArc
 50
86.75427950172089
 51
88.14806672549261
  0
LWPOLYLINE
  5
17F71
330
1F
100
AcDbEntity
  8
product
100
AcDbPolyline
 90
        9
 70
   128
 43
0.0
 10
107.4176748057068
 20
123.0627041906406
 10
107.7580290605719
 20
123.3044878508685
 10
108.1213451835131
 20
123.5182326883366
 10
108.5035846078508
 20
123.7098405015335
 10
108.9000399746312
 20
123.8856272708297
 10
109.3059546454703
 20
124.0518033778158
 10
109.8811558940297
 20
124.2799436756529
 10
110.4520440190813
 20
124.5164814231487
 10
111.0049263788039
 20
124.7760584778257
  0
LWPOLYLINE
  5
17F72
330
1F
100
AcDbEntity
  8
product
100
AcDbPolyline
 90
        9
 70
   128
 43
0.0
 10
106.8784803945266
 20
97.92782911086248
 10
98.85613402935655
 20
97.49019843307602
 10
90.83242074664372
 20
97.07691062074545
 10
82.80794656605417
 20
96.69039913909239
 10
74.78205538183397
 20
96.33227847613284
 10
68.97485602043002
 20
96.09155197702591
 10
63.16702460632746
 20
95.86658902915038
 10
57.35842173447008
 20
95.65763016306107
 10
51.54925801575837
 20
95.4648619366028
  0
LWPOLYLINE
  5
17F73
330
1F
100
AcDbEntity
  8
product
100
AcDbPolyline
 90
        3
 70
   128
 43
0.0
 10
107.4181746399326
 20
98.01817825380815
 10
107.1533516725237
 20
97.95832251859994
 10
106.8784803945266
 20
97.92782793754266
  0
LWPOLYLINE
  5
17F74
330
1F
100
AcDbEntity
  8
product
100
AcDbPolyline
 90
        9
 70
   128
 43
0.0
 10
111.0049240321643
 20
96.30454119655631
 10
110.4520346325232
 20
96.56411942455315
 10
109.8811394675529
 20
96.80066069200822
 10
109.3059311790746
 20
97.02880450980469
 10
108.9000212015146
 20
97.1949782701513
 10
108.5035728746531
 20
97.3707638661277
 10
108.1213381435943
 20
97.56236933268501
 10
107.758024367293
 20
97.77611182351357
 10
107.4176748057068
 20
98.01789313710182
  0
LWPOLYLINE
  5
17F75
330
1F
100
AcDbEntity
  8
product
100
AcDbPolyline
 90
        5
 70
   128
 43
0.0
 10
111.6183684656018
 20
125.2608026380198
 10
111.670492023466
 20
125.290915890149
 10
111.8207121547768
 20
125.377694621007
 10
111.9174218642449
 20
125.4335552023675
 10
111.9706061031893
 20
125.4642727141829
  0
ARC
  5
17F76
330
1F
100
AcDbEntity
  8
product
100
AcDbCircle
 10
110.0599475423626
 20
114.260182115115
 30
0.0
 40
11.11046028132709
100
AcDbArc
 50
81.93675545546978
 51
84.91435740545441
  0
LWPOLYLINE
  5
17F77
330
1F
100
AcDbEntity
  8
product
100
AcDbPolyline
 90
        3
 70
   128
 43
0.0
 10
111.6183684656018
 20
95.81979468972262
 10
111.3342350012692
 20
95.78326924500103
 10
111.0457274008001
 20
95.75377550571522
  0
LWPOLYLINE
  5
17F78
330
1F
100
AcDbEntity
  8
product
100
AcDbPolyline
 90
        3
 70
   128
 43
0.0
 10
111.9706061031893
 20
95.6163246135596
 10
111.7375425555592
 20
95.75094545840816
 10
111.6183684656018
 20
95.81979468972262
  0
ARC
  5
17F79
330
1F
100
AcDbEntity
  8
product
100
AcDbCircle
 10
78.36775161284299
 20
110.5402986638712
 30
0.0
 40
31.90194680932103
100
AcDbArc
 50
154.3817140608058
 51
205.6182859391949
  0
LWPOLYLINE
  5
17F7A
330
1F
100
AcDbEntity
  8
product
100
AcDbPolyline
 90
        3
 70
   128
 43
0.0
 10
49.39610358251548
 20
96.64805872154587
 10
49.51786366926604
 20
96.70643842047191
 10
49.60193907135295
 20
96.74674078156236
  0
LWPOLYLINE
  5
17F7B
330
1F
100
AcDbEntity
  8
product
100
AcDbPolyline
 90
        3
 70
   128
 43
0.0
 10
49.60194611127167
 20
124.3338729726571
 10
49.51787070918453
 20
124.3741753337474
 10
49.39611062243421
 20
124.4325562059933
  0
ARC
  5
17F7C
330
1F
100
AcDbEntity
  8
product
100
AcDbCircle
 10
113.8804158551031
 20
176.2606096131284
 30
0.0
 40
80.00791162861871
100
AcDbArc
 50
267.940572816623
 51
268.3066629537553
  0
ARC
  5
17F7D
330
1F
100
AcDbEntity
  8
product
100
AcDbCircle
 10
113.1743465554218
 20
96.40473457992149
 30
0.0
 40
1.662294345520072
100
AcDbArc
 50
184.0394459116639
 51
200.6027803886662
  0
LWPOLYLINE
  5
17F7E
330
1F
100
AcDbEntity
  8
product
100
AcDbPolyline
 90
        4
 70
   128
 43
0.0
 10
111.5161816994055
 20
124.7929601492429
 10
111.2623715114423
 20
124.7850543205717
 10
111.0052502150629
 20
124.776221569275
 10
111.0052478684233
 20
124.776221569275
  0
ARC
  5
17F7F
330
1F
100
AcDbEntity
  8
product
100
AcDbCircle
 10
113.1743465552481
 20
124.6758627478527
 30
0.0
 40
1.66229434534564
100
AcDbArc
 50
159.3972196103052
 51
175.9605540884354
  0
ARC
  5
17F80
330
1F
100
AcDbEntity
  8
product
100
AcDbCircle
 10
106.9843478494008
 20
100.0429953427329
 30
0.0
 40
2.0708183515943
100
AcDbArc
 50
282.0749182173352
 51
345.3243903196449
  0
LWPOLYLINE
  5
17F81
330
1F
100
AcDbEntity
  8
product
100
AcDbPolyline
 90
       19
 70
   128
 43
0.0
 10
108.9870885690386
 20
99.51730429577619
 10
109.2139030155251
 20
99.32028513175833
 10
109.4399266444809
 20
99.10239260887141
 10
109.6465013247794
 20
98.88418798292319
 10
109.8216146085224
 20
98.68548393170266
 10
110.0207293216656
 20
98.44882063899047
 10
110.2438431175694
 20
98.1741981047868
 10
110.5016777923745
 20
97.84929529809179
 10
110.6917368234631
 20
97.61093538497917
 10
110.8544410772231
 20
97.40912320966394
 10
110.9897905536543
 20
97.24385877214622
 10
111.0977875993965
 20
97.11514324574558
 10
111.1495990541993
 20
97.05518777835626
 10
111.2287840594474
 20
96.96560598654613
 10
111.3071993669205
 20
96.87920154469761
 10
111.3848379366998
 20
96.79597562613048
 10
111.4617068087041
 20
96.71592940416459
 10
111.5378036362938
 20
96.63906053216038
 10
111.6131284194687
 20
96.56537018343756
  0
LWPOLYLINE
  5
17F82
330
1F
100
AcDbEntity
  8
product
100
AcDbPolyline
 90
        3
 70
   128
 43
0.0
 10
111.6366182814451
 20
96.41151393413146
 10
111.6129711946182
 20
96.56484570949634
 10
111.6129711946182
 20
96.56484805613587
  0
ARC
  5
17F83
330
1F
100
AcDbEntity
  8
product
100
AcDbCircle
 10
111.5339730194957
 20
96.3908242904937
 30
0.0
 40
0.1047096516779431
100
AcDbArc
 50
260.2173564020564
 51
11.39609953584088
  0
LWPOLYLINE
  5
17F84
330
1F
100
AcDbEntity
  8
product
100
AcDbPolyline
 90
        3
 70
   128
 43
0.0
 10
111.6129711946182
 20
124.5157492716066
 10
111.6129711946182
 20
124.5157516182461
 10
111.6366182814451
 20
124.6690833936111
  0
LWPOLYLINE
  5
17F85
330
1F
100
AcDbEntity
  8
product
100
AcDbPolyline
 90
       23
 70
   128
 43
0.0
 10
111.6131284194687
 20
124.5152236243455
 10
111.3417700608902
 20
124.2387390316525
 10
111.3055097864387
 20
124.1995548443116
 10
111.2690829005785
 20
124.1596807449406
 10
111.2324870566701
 20
124.1191179068592
 10
111.1957222547137
 20
124.0778663300676
 10
111.1587908413482
 20
124.0359236679262
 10
111.1241450549128
 20
123.9961246610211
 10
111.0520656742467
 20
123.9114532124862
 10
110.9647331364531
 20
123.8063988527497
 10
110.8621474415317
 20
123.6809639284514
 10
110.7008558647858
 20
123.4810407979805
 10
110.5122024707925
 20
123.2445593698341
 10
110.3081809343332
 20
122.9870356247704
 10
110.1293036407392
 20
122.7643641704233
 10
109.9815991070345
 20
122.5845493943257
 10
109.8452218024768
 20
122.4226594244924
 10
109.7201740737055
 20
122.278691914284
 10
109.6064559207204
 20
122.1526480370203
 10
109.4540182150274
 20
121.9925016203788
 10
109.2987598485851
 20
121.8395722936981
 10
109.1431166332556
 20
121.6965023731206
 10
108.9870909156779
 20
121.5632906853267
  0
ARC
  5
17F86
330
1F
100
AcDbEntity
  8
product
100
AcDbCircle
 10
106.9898895577946
 20
121.0434011216449
 30
0.0
 40
2.063992534044195
100
AcDbArc
 50
14.55885311398501
 51
78.04183834917131
  0
ARC
  5
17F87
330
1F
100
AcDbEntity
  8
product
100
AcDbCircle
 10
111.5336936286403
 20
124.689501405356
 30
0.0
 40
0.1049303548008388
100
AcDbArc
 50
348.7794413402647
 51
99.60710271251988
  0
ARC
  5
17F88
330
1F
100
AcDbEntity
  8
product
100
AcDbCircle
 10
111.6421186933139
 20
127.9171854474647
 30
0.0
 40
3.24810671111332
100
AcDbArc
 50
269.9029740817311
 51
278.2141305696951
  0
LINE
  5
17F89
330
1F
100
AcDbEntity
  8
product
100
AcDbLine
 10
112.1061855502973
 20
124.7024009820568
 30
0.0
 11
112.1093840200149
 21
124.5157492716066
 31
0.0
  0
LINE
  5
17F8A
330
1F
100
AcDbEntity
  8
product
100
AcDbLine
 10
111.6129711946182
 20
124.5157492716066
 30
0.0
 11
112.1093840200149
 21
124.5157492716066
 31
0.0
  0
LINE
  5
17F8B
330
1F
100
AcDbEntity
  8
product
100
AcDbLine
 10
111.6129711946182
 20
96.56552036836929
 30
0.0
 11
111.6129711946182
 21
124.515072266094
 31
0.0
  0
LINE
  5
17F8C
330
1F
100
AcDbEntity
  8
product
100
AcDbLine
 10
112.1093840200149
 20
124.5157492716066
 30
0.0
 11
112.1093840200149
 21
96.56552036836929
 31
0.0
  0
LINE
  5
17F8D
330
1F
100
AcDbEntity
  8
product
100
AcDbLine
 10
111.6129711946182
 20
96.56552036836929
 30
0.0
 11
112.1093840200149
 21
96.56552036836929
 31
0.0
  0
LWPOLYLINE
  5
17F8E
330
1F
100
AcDbEntity
  8
product
100
AcDbPolyline
 90
        3
 70
   128
 43
0.0
 10
112.1093840200149
 20
96.56552036836929
 10
112.1093840200149
 20
96.56484805613587
 10
112.1061855502973
 20
96.37819634568572
  0
ARC
  5
17F8F
330
1F
100
AcDbEntity
  8
product
100
AcDbCircle
 10
111.6421186932807
 20
93.16341187984539
 30
0.0
 40
3.248106711545933
100
AcDbArc
 50
81.7858694308183
 51
90.09702591767611
  0
ARC
  5
17F90
330
1F
100
AcDbEntity
  8
product
100
AcDbCircle
 10
106.8522462996745
 20
100.1779773531235
 30
0.0
 40
2.234917804566972
100
AcDbArc
 50
342.8022699368962
 51
0.0467703893262476
  0
LINE
  5
17F91
330
1F
100
AcDbEntity
  8
product
100
AcDbLine
 10
109.0871633596325
 20
120.900712312822
 30
0.0
 11
109.0871633596325
 21
100.1798017092162
 31
0.0
  0
ARC
  5
17F92
330
1F
100
AcDbEntity
  8
product
100
AcDbCircle
 10
106.8442085442807
 20
120.901413058786
 30
0.0
 40
2.242954924816395
100
AcDbArc
 50
359.9820995501992
 51
17.16639925138318
  0
ARC
  5
17F93
330
1F
100
AcDbEntity
  8
product
100
AcDbCircle
 10
111.4932673945725
 20
96.42136059649082
 30
0.0
 40
0.614436179081833
100
AcDbArc
 50
281.7477342749014
 51
355.971643277143
  0
ARC
  5
17F94
330
1F
100
AcDbEntity
  8
product
100
AcDbCircle
 10
111.4903503047751
 20
124.6566883751939
 30
0.0
 40
0.6175295070306328
100
AcDbArc
 50
4.245201802897165
 51
78.03542064538039
  0
LWPOLYLINE
  5
17F95
330
1F
100
AcDbEntity
  8
product
100
AcDbPolyline
 90
        4
 70
   128
 43
0.0
 10
112.488089405178
 20
124.9191542114383
 10
112.4017424559988
 20
124.8701493375468
 10
112.2623966523999
 20
124.7910628911601
 10
112.1061855502973
 20
124.7024009820568
  0
LWPOLYLINE
  5
17F96
330
1F
100
AcDbEntity
  8
product
100
AcDbPolyline
 90
        4
 70
   128
 43
0.0
 10
112.1061855502973
 20
96.37819634568572
 10
112.2623966523999
 20
96.28953443658232
 10
112.4024300213893
 20
96.21005844802908
 10
112.488089405178
 20
96.16144311630423
  0
LWPOLYLINE
  5
17F97
330
1F
100
AcDbEntity
  8
product
100
AcDbPolyline
 90
        9
 70
   128
 43
0.0
 10
55.02590542656412
 20
99.04577523625345
 10
55.18023687038066
 20
98.77061532159096
 10
55.37327613370803
 20
98.51090802841838
 10
55.6008086518998
 20
98.27548962799182
 10
55.85861751366974
 20
98.07319756488709
 10
56.14002887611491
 20
97.91252315434485
 10
56.43508594759055
 20
97.79616737849673
 10
56.73464974033731
 20
97.72428628887325
 10
57.02957891995698
 20
97.69703476368519
  0
ARC
  5
17F98
330
1F
100
AcDbEntity
  8
product
100
AcDbCircle
 10
324.348072835701
 20
-632.315252589224
 30
0.0
 40
777.4169517547248
100
AcDbArc
 50
110.1118997364139
 51
110.5452014818232
  0
LWPOLYLINE
  5
17F99
330
1F
100
AcDbEntity
  8
product
100
AcDbPolyline
 90
       12
 70
   128
 43
0.0
 10
49.60615598263894
 20
96.73793853657992
 10
49.60615598263894
 20
96.73793736326011
 10
49.74119570264861
 20
96.50526922439567
 10
49.90888891210897
 20
96.29479794911114
 10
50.14317036566945
 20
96.07932833156784
 10
50.40901177464707
 20
95.90414816859739
 10
50.61173092615127
 20
95.80734342022742
 10
50.82458052062793
 20
95.73328934237315
 10
51.04351495147875
 20
95.68302666967847
 10
51.27952118511462
 20
95.65594292921888
 10
51.51652239392297
 20
95.65456897175753
 10
51.51652474056255
 20
95.65457014507734
  0
LWPOLYLINE
  5
17F9A
330
1F
100
AcDbEntity
  8
product
100
AcDbPolyline
 90
        5
 70
   128
 43
0.0
 10
49.60615598263894
 20
96.73793853657992
 10
50.95891155549111
 20
97.28061888082361
 10
52.29555979441648
 20
97.8558705821335
 10
53.65858426197497
 20
98.45654342977622
 10
55.02590542656412
 20
99.04577523625345
  0
LWPOLYLINE
  5
17F9B
330
1F
100
AcDbEntity
  8
product
100
AcDbPolyline
 90
        9
 70
   128
 43
0.0
 10
57.02957774663719
 20
123.3835625640574
 10
56.73464856701753
 20
123.3563110388693
 10
56.43508594759055
 20
123.2844299492458
 10
56.14002887611491
 20
123.1680741733977
 10
55.85861751366974
 20
123.0073997628556
 10
55.6008086518998
 20
122.8051076997506
 10
55.37327613370803
 20
122.5696892993242
 10
55.18023569706087
 20
122.3099820061516
 10
55.02590425324433
 20
122.0348220914891
  0
LWPOLYLINE
  5
17F9C
330
1F
100
AcDbEntity
  8
product
100
AcDbPolyline
 90
        5
 70
   128
 43
0.0
 10
55.02590425324433
 20
122.0348220914891
 10
53.65858426197497
 20
122.6240538979663
 10
52.29555979441648
 20
123.224726745609
 10
50.95891155549111
 20
123.7999784469189
 10
49.60615598263894
 20
124.3426587911625
  0
LWPOLYLINE
  5
17F9D
330
1F
100
AcDbEntity
  8
product
100
AcDbPolyline
 90
       13
 70
   128
 43
0.0
 10
51.51652474056255
 20
125.4260271826651
 10
51.51652239392297
 20
125.4260283559849
 10
51.28374278967953
 20
125.4247247977104
 10
51.05112510356571
 20
125.3986254725453
 10
50.82337434789519
 20
125.3471589737574
 10
50.60684052931242
 20
125.2712369708149
 10
50.39958767018152
 20
125.1710389816439
 10
50.20575054940445
 20
125.0482956529187
 10
50.03090008929189
 20
124.9067311016178
 10
49.87296655375371
 20
124.7454934975817
 10
49.73569517952433
 20
124.5673976349603
 10
49.60615598263894
 20
124.3426599644823
 10
49.60615598263894
 20
124.3426587911625
  0
ARC
  5
17F9E
330
1F
100
AcDbEntity
  8
product
100
AcDbCircle
 10
324.3577261515363
 20
853.4217527400249
 30
0.0
 40
777.444594839397
100
AcDbArc
 50
249.4548022896804
 51
249.8880885473082
  0
ARC
  5
17F9F
330
1F
100
AcDbEntity
  8
product
100
AcDbCircle
 10
43.65093610604503
 20
125.8857520183911
 30
0.0
 40
7.879033172357646
100
AcDbArc
 50
356.6550132483702
 51
358.0520551510209
  0
ARC
  5
17FA0
330
1F
100
AcDbEntity
  8
product
100
AcDbCircle
 10
43.63840109837633
 20
95.19417208539701
 30
0.0
 40
7.891565021903841
100
AcDbArc
 50
1.949732476063219
 51
3.344565055794339
  0
LWPOLYLINE
  5
17FA1
330
1F
100
AcDbEntity
  8
product
100
AcDbPolyline
 90
        3
 70
   128
 43
0.0
 10
51.54988456852038
 20
95.46488070971927
 10
51.54557613829183
 20
95.59208382692458
 10
51.54333509751359
 20
95.65546186810937
  0
ARC
  5
17FA2
330
1F
100
AcDbEntity
  8
product
100
AcDbCircle
 10
-12.96452034306253
 20
2060.069861697165
 30
0.0
 40
1965.473276918071
100
AcDbArc
 50
271.880815058318
 51
273.4950999854553
  0
ARC
  5
17FA3
330
1F
100
AcDbEntity
  8
product
100
AcDbCircle
 10
82.04689852671981
 20
96.44523163732925
 30
0.0
 40
24.8758025664724
100
AcDbArc
 50
3.416852537584082
 51
4.16592117744586
  0
ARC
  5
17FA4
330
1F
100
AcDbEntity
  8
product
100
AcDbCircle
 10
-12.92248609881926
 20
-1838.094403188254
 30
0.0
 40
1964.577517663926
100
AcDbArc
 50
86.5045326150833
 51
88.11957191453497
  0
LWPOLYLINE
  5
17FA5
330
1F
100
AcDbEntity
  8
product
100
AcDbPolyline
 90
        3
 70
   128
 43
0.0
 10
51.54302299445248
 20
125.425146019511
 10
51.54527576842838
 20
125.488528753975
 10
51.54959827849438
 20
125.6157424310583
  0
ARC
  5
17FA6
330
1F
100
AcDbEntity
  8
product
100
AcDbCircle
 10
82.00683019826419
 20
124.6382013575979
 30
0.0
 40
24.91603213317173
100
AcDbArc
 50
355.834270858639
 51
356.5821303876911
  0
ARC
  5
17FA7
330
1F
100
AcDbEntity
  8
product
100
AcDbCircle
 10
106.6836322549782
 20
120.7896408703943
 30
0.0
 40
2.056046817720831
100
AcDbArc
 50
17.5800560885566
 51
73.22330037238312
  0
ARC
  5
17FA8
330
1F
100
AcDbEntity
  8
product
100
AcDbCircle
 10
106.4336460205966
 20
123.3322059662708
 30
0.0
 40
1.020494246412009
100
AcDbArc
 50
325.7662259113313
 51
344.6758745731323
  0
ARC
  5
17FA9
330
1F
100
AcDbEntity
  8
product
100
AcDbCircle
 10
109.4296125888879
 20
120.0933347466456
 30
0.0
 40
1.533961960858502
100
AcDbArc
 50
106.747008222771
 51
120.8219681060482
  0
ARC
  5
17FAA
330
1F
100
AcDbEntity
  8
product
100
AcDbCircle
 10
106.4343824795635
 20
97.74844397019229
 30
0.0
 40
1.020099798334285
100
AcDbArc
 50
15.33246254573198
 51
34.250139575824
  0
ARC
  5
17FAB
330
1F
100
AcDbEntity
  8
product
100
AcDbCircle
 10
106.6798769889583
 20
100.2947560681317
 30
0.0
 40
2.060776466952166
100
AcDbArc
 50
286.8603659420671
 51
342.377203945607
  0
ARC
  5
17FAC
330
1F
100
AcDbEntity
  8
product
100
AcDbCircle
 10
109.4278688549177
 20
100.974023646724
 30
0.0
 40
1.520783599490852
100
AcDbArc
 50
238.9707410057988
 51
253.1721795082318
  0
ARC
  5
17FAD
330
1F
100
AcDbEntity
  8
product
100
AcDbCircle
 10
107.0745046681618
 20
120.9138639938512
 30
0.0
 40
1.645909690467694
100
AcDbArc
 50
359.5450718693486
 51
17.56741841994677
  0
LINE
  5
17FAE
330
1F
100
AcDbEntity
  8
product
100
AcDbLine
 10
109.0871633596325
 20
120.900712312822
 30
0.0
 11
108.7203624769477
 21
120.900712312822
 31
0.0
  0
LWPOLYLINE
  5
17FAF
330
1F
100
AcDbEntity
  8
product
100
AcDbPolyline
 90
        4
 70
   128
 43
0.0
 10
108.643941813099
 20
99.6708578285793
 10
108.7014743751447
 20
99.91775012312514
 10
108.7203624769477
 20
100.1797993625765
 10
108.7203624769477
 20
100.1798017092162
  0
LINE
  5
17FB0
330
1F
100
AcDbEntity
  8
product
100
AcDbLine
 10
109.0871633596325
 20
100.1798017092162
 30
0.0
 11
108.7203624769477
 21
100.1798017092162
 31
0.0
  0
ARC
  5
17FB1
330
1F
100
AcDbEntity
  8
product
100
AcDbCircle
 10
106.7610356110465
 20
100.121571163785
 30
0.0
 40
1.87169788779692
100
AcDbArc
 50
272.9419160494239
 51
286.0203708688723
  0
LWPOLYLINE
  5
17FB2
330
1F
100
AcDbEntity
  8
product
100
AcDbPolyline
 90
        4
 70
   128
 43
0.0
 10
107.2770946697005
 20
122.7581760819087
 10
107.0711277690477
 20
122.804861302597
 10
106.857100161513
 20
122.8282572989912
 10
106.8570978148734
 20
122.8282572989912
  0
LINE
  5
17FB3
330
1F
100
AcDbEntity
  8
product
100
AcDbLine
 10
51.5427085447518
 20
125.4251565793891
 30
0.0
 11
51.51656932671426
 21
125.4260260093453
 31
0.0
  0
LINE
  5
17FB4
330
1F
100
AcDbEntity
  8
product
100
AcDbLine
 10
51.51656932671426
 20
95.65457131839716
 30
0.0
 11
51.54333509751359
 21
95.65546186810937
 31
0.0
  0
LINE
  5
17FB5
330
1F
100
AcDbEntity
  8
product
100
AcDbLine
 10
108.7203624769477
 20
100.1799037880369
 30
0.0
 11
108.7203624769477
 21
120.900712312822
 31
0.0
  0
LWPOLYLINE
  5
17FB6
330
1F
100
AcDbEntity
  8
product
100
AcDbPolyline
 90
       13
 70
   128
 43
0.0
 10
102.9822702572119
 20
99.59470233500079
 10
103.2425689035531
 20
99.62859719677773
 10
103.5078142660829
 20
99.69610180362543
 10
103.7719895609737
 20
99.79928941159341
 10
104.0284796113124
 20
99.93952341826483
 10
104.2701623660391
 20
100.11467894152
 10
104.4902489969129
 20
100.3215997511532
 10
104.682232272439
 20
100.5560583760004
 10
104.8422848234981
 20
100.8112090818111
 10
104.967628228854
 20
101.0799661904393
 10
105.0565072021165
 20
101.3549418938965
 10
105.1105432712204
 20
101.6294271496861
 10
105.1320267563749
 20
101.89735765453
  0
LWPOLYLINE
  5
17FB7
330
1F
100
AcDbEntity
  8
product
100
AcDbPolyline
 90
       23
 70
   128
 43
0.0
 10
105.1320267563749
 20
101.89735765453
 10
105.2658086775811
 20
101.8340353460347
 10
105.4092282474528
 20
101.7651127822341
 10
105.5622878126289
 20
101.6905893764681
 10
105.7249850264702
 20
101.610465128737
 10
105.7915380709771
 20
101.5774549500733
 10
105.8595812316034
 20
101.5435812080524
 10
105.9291098150699
 20
101.5088421426943
 10
106.0001285146559
 20
101.473239513979
 10
106.0687630284508
 20
101.4387251393586
 10
106.1304467958746
 20
101.4076720580864
 10
106.1921282166588
 20
101.3766048969769
 10
106.2538119840826
 20
101.3455224827103
 10
106.4741004259588
 20
101.2343938464778
 10
106.6943865211947
 20
101.1230774790806
 10
106.9146655765123
 20
101.0115722071991
 10
107.1544944859883
 20
100.8908370152757
 10
107.4388156814855
 20
100.7510934562718
 10
107.7137995981811
 20
100.619851772387
 10
107.9794462360753
 20
100.4971119636211
 10
108.2357555951678
 20
100.3828740299741
 10
108.4827276754586
 20
100.277137971446
 10
108.7203648235872
 20
100.1799026147171
  0
LWPOLYLINE
  5
17FB8
330
1F
100
AcDbEntity
  8
product
100
AcDbPolyline
 90
        6
 70
   128
 43
0.0
 10
106.8570954682338
 20
98.25234120207106
 10
106.2553466863537
 20
98.47187402600919
 10
105.6312954421137
 20
98.6899777464564
 10
104.9929977491165
 20
98.90750536689214
 10
103.9806457105603
 20
99.24962898798419
 10
102.9822702572119
 20
99.59470233500079
  0
LWPOLYLINE
  5
17FB9
330
1F
100
AcDbEntity
  8
product
100
AcDbPolyline
 90
       13
 70
   128
 43
0.0
 10
105.1321065421198
 20
119.1832766327855
 10
105.1106207103259
 20
119.4512059643097
 10
105.0565846412219
 20
119.7256906334394
 10
104.9677080145989
 20
120.0006651635769
 10
104.8423646092433
 20
120.2694216855452
 10
104.6823120581839
 20
120.524571804696
 10
104.4903287826578
 20
120.7590292562234
 10
104.2702444984236
 20
120.9659500658566
 10
104.0285617436966
 20
121.141104415792
 10
103.7720716933584
 20
121.2813384224634
 10
103.5078987451068
 20
121.3845260304313
 10
103.2426557292167
 20
121.4520294639592
 10
102.9823570828757
 20
121.4859254990561
  0
LWPOLYLINE
  5
17FBA
330
1F
100
AcDbEntity
  8
product
100
AcDbPolyline
 90
        6
 70
   128
 43
0.0
 10
102.9823570828757
 20
121.4859254990561
 10
103.9807114164678
 20
121.8309906328342
 10
104.9930399886284
 20
122.1731072140075
 10
105.6313236017883
 20
122.3906301411641
 10
106.2553607661909
 20
122.6087279950124
 10
106.8570954682338
 20
122.8282561256714
  0
LWPOLYLINE
  5
17FBB
330
1F
100
AcDbEntity
  8
product
100
AcDbPolyline
 90
       16
 70
   128
 43
0.0
 10
108.7203648235872
 20
120.900712312822
 10
108.582546682341
 20
120.8449901831955
 10
108.4434120763023
 20
120.7871830643216
 10
108.3029610054716
 20
120.7272909562003
 10
108.16118877657
 20
120.6653138588317
 10
108.0181000828761
 20
120.6012517722157
 10
107.8746030738991
 20
120.5355247448333
 10
107.7522844869338
 20
120.4784075379895
 10
107.62326859067
 20
120.4172435512277
 10
107.4515743607628
 20
120.3346095724892
 10
107.2692967864488
 20
120.245579827635
 10
107.0764358677281
 20
120.1501543166654
 10
106.8859802545542
 20
120.0549171235203
 10
106.7093486950173
 20
119.9661871618696
 10
105.9206548727422
 20
119.566929320797
 10
105.1321065421198
 20
119.1832766327855
  0
LWPOLYLINE
  5
17FBC
330
1F
100
AcDbEntity
  8
product
100
AcDbPolyline
 90
        8
 70
   128
 43
0.0
 10
55.31618356657964
 20
121.196202339296
 10
55.32211587138249
 20
121.3521072049364
 10
55.31693449123827
 20
121.4953812831554
 10
55.30016540495603
 20
121.6250436786176
 10
55.27133459134552
 20
121.7401111493484
 10
55.2133115816323
 20
121.8691376054904
 10
55.13187614904791
 20
121.9681493683648
 10
55.02590425324433
 20
122.0348220914891
  0
LWPOLYLINE
  5
17FBD
330
1F
100
AcDbEntity
  8
product
100
AcDbPolyline
 90
        8
 70
   128
 43
0.0
 10
54.83091258580476
 20
119.325709440723
 10
54.95834215372747
 20
119.6795427932099
 10
55.06921735288779
 20
120.0204097888186
 10
55.16198940117715
 20
120.3454105677152
 10
55.21875461208719
 20
120.5770027723423
 10
55.2638112649222
 20
120.7968148463878
 10
55.29650582056524
 20
121.0036230173221
 10
55.31618356657964
 20
121.196202339296
  0
ARC
  5
17FBE
330
1F
100
AcDbEntity
  8
product
100
AcDbCircle
 10
78.183681946545
 20
110.5402976760877
 30
0.0
 40
24.95069363134072
100
AcDbArc
 50
159.3834852653106
 51
200.6165300387299
  0
LWPOLYLINE
  5
17FBF
330
1F
100
AcDbEntity
  8
product
100
AcDbPolyline
 90
        8
 70
   128
 43
0.0
 10
55.31616596678304
 20
99.88465663875725
 10
55.29647414093119
 20
100.077220707574
 10
55.26377137204986
 20
100.2840065854325
 10
55.21871119925527
 20
100.5037904998034
 10
55.16194598834545
 20
100.7353504381366
 10
55.06918332661417
 20
101.0602995909628
 10
54.95832338061109
 20
101.4011090939024
 10
54.83091493244433
 20
101.7548790871212
  0
LWPOLYLINE
  5
17FC0
330
1F
100
AcDbEntity
  8
product
100
AcDbPolyline
 90
        8
 70
   128
 43
0.0
 10
55.02590542656412
 20
99.04577523625345
 10
55.13189492216452
 20
99.11246438585472
 10
55.21333974130698
 20
99.21150665504329
 10
55.27136392433977
 20
99.3405730040579
 10
55.30018887135179
 20
99.45567684770178
 10
55.3169485710755
 20
99.58538030935629
 10
55.32211587138249
 20
99.72870132036643
 10
55.31616596678304
 20
99.88465663875725
  0
ARC
  5
17FC1
330
1F
100
AcDbEntity
  8
product
100
AcDbCircle
 10
58.86685139303245
 20
91.97844404294032
 30
0.0
 40
6.006483994127555
100
AcDbArc
 50
96.29369485507918
 51
107.8112063055853
  0
ARC
  5
17FC2
330
1F
100
AcDbEntity
  8
product
100
AcDbCircle
 10
60.996681692837
 20
76.25389235707334
 30
0.0
 40
21.87328095807789
100
AcDbArc
 50
91.92389565778841
 51
97.32369113906145
  0
LWPOLYLINE
  5
17FC3
330
1F
100
AcDbEntity
  8
product
100
AcDbPolyline
 90
        2
 70
   128
 43
0.0
 10
100.0061070914362
 20
99.716261784069
 10
80.52679154693647
 20
98.91796817646046
  0
ARC
  5
17FC4
330
1F
100
AcDbEntity
  8
product
100
AcDbCircle
 10
101.0851418539023
 20
76.24793005513189
 30
0.0
 40
23.493136463132
100
AcDbArc
 50
88.0214911372097
 51
92.63250909042131
  0
LWPOLYLINE
  5
17FC5
330
1F
100
AcDbEntity
  8
product
100
AcDbPolyline
 90
        7
 70
   128
 43
0.0
 10
102.9822702572119
 20
99.59470233500079
 10
102.872057983727
 20
99.62616021159671
 10
102.7309357739827
 20
99.65389866449307
 10
102.5608513388126
 20
99.67788601405581
 10
102.3637430024916
 20
99.69809527393007
 10
102.1415584758529
 20
99.7144971111213
 10
101.8962337365319
 20
99.7270610193153
  0
LWPOLYLINE
  5
17FC6
330
1F
100
AcDbEntity
  8
product
100
AcDbPolyline
 90
        7
 70
   128
 43
0.0
 10
101.8964308542547
 20
121.3535820678987
 10
102.1417274339012
 20
121.3661448027729
 10
102.3638908407838
 20
121.3825442933246
 10
102.5609780573486
 20
121.4027512065592
 10
102.7310460660419
 20
121.4267362094824
 10
102.8721541959487
 20
121.4544699690997
 10
102.9823570828757
 20
121.4859254990561
  0
ARC
  5
17FC7
330
1F
100
AcDbEntity
  8
product
100
AcDbCircle
 10
101.0815965620972
 20
144.83353021028
 30
0.0
 40
23.49408265271474
100
AcDbArc
 50
267.3759083958413
 51
271.9875613536949
  0
LWPOLYLINE
  5
17FC8
330
1F
100
AcDbEntity
  8
product
100
AcDbPolyline
 90
        2
 70
   128
 43
0.0
 10
60.26233656153158
 20
122.9657375241413
 10
70.29874595416555
 20
122.5678830685495
  0
ARC
  5
17FC9
330
1F
100
AcDbEntity
  8
product
100
AcDbCircle
 10
60.99643183513149
 20
144.8211793965302
 30
0.0
 40
21.86776000387506
100
AcDbArc
 50
262.6722023951964
 51
268.0762334682893
  0
ARC
  5
17FCA
330
1F
100
AcDbEntity
  8
product
100
AcDbCircle
 10
58.86593807626468
 20
129.0985669129008
 30
0.0
 40
6.002790515046161
100
AcDbArc
 50
252.186611922639
 51
263.7006188116789
  0
LWPOLYLINE
  5
17FCB
330
1F
100
AcDbEntity
  8
product
100
AcDbPolyline
 90
        7
 70
   128
 43
0.0
 10
104.7193373371317
 20
102.7476859647981
 10
104.7728688787306
 20
102.5278551176363
 10
104.8327551202528
 20
102.3381158161875
 10
104.8990007549778
 20
102.1784674737921
 10
104.9721924427945
 20
102.0487088661079
 10
105.0498685588068
 20
101.955005201914
 10
105.1320267563749
 20
101.89735765453
  0
ARC
  5
17FCC
330
1F
100
AcDbEntity
  8
product
100
AcDbCircle
 10
113.3833585993595
 20
104.3972838837192
 30
0.0
 40
8.81966199615651
100
AcDbArc
 50
179.1820902863872
 51
190.7798827640615
  0
SPLINE
  5
17FCD
330
1F
100
AcDbEntity
  8
product
100
AcDbSpline
210
0.0
220
0.0
230
1.0
 70
    28
 71
     3
 72
     9
 73
     5
 74
     0
 42
0.0000000001
 43
0.0000000001
 40
0.0
 40
0.0
 40
0.0
 40
0.0
 40
0.5599999887873019
 40
0.9999999999999998
 40
0.9999999999999998
 40
0.9999999999999998
 40
0.9999999999999998
 10
104.5645952313921
 20
116.5570185448765
 30
0.0
 41
1.0
 10
104.5645952313921
 20
114.3107024722892
 30
0.0
 41
1.0
 10
104.5645952313921
 20
110.299423690924
 30
0.0
 41
1.0
 10
104.5645952313921
 20
106.2881449095588
 30
0.0
 41
1.0
 10
104.5645952313921
 20
104.5231822007808
 30
0.0
 41
1.0
  0
ARC
  5
17FCE
330
1F
100
AcDbEntity
  8
product
100
AcDbCircle
 10
113.383152737008
 20
116.6830518697706
 30
0.0
 40
8.819458083059146
100
AcDbArc
 50
169.2162573585517
 51
180.8188057959396
  0
LWPOLYLINE
  5
17FCF
330
1F
100
AcDbEntity
  8
product
100
AcDbPolyline
 90
        7
 70
   128
 43
0.0
 10
105.1321065421198
 20
119.1832766327855
 10
105.0499694643074
 20
119.1256455118785
 10
104.9723003882143
 20
119.0319664874
 10
104.8991040071182
 20
118.9022407326696
 10
104.8328701055914
 20
118.742673349339
 10
104.7729838640689
 20
118.5529915405594
 10
104.7194429359117
 20
118.3331953063309
  0
LWPOLYLINE
  5
17FD0
330
1F
100
AcDbEntity
  8
product
100
AcDbPolyline
 90
        7
 70
   128
 43
0.0
 10
58.20729043493293
 20
123.1320204032273
 10
57.89546545049529
 20
123.1177809943888
 10
57.5932124088149
 20
123.0767781613903
 10
57.30140191316786
 20
123.0050636831755
 10
57.02079075481197
 20
122.900259240552
 10
56.75168517020916
 20
122.7658167403099
 10
56.49429518360034
 20
122.6065303670663
  0
LWPOLYLINE
  5
17FD1
330
1F
100
AcDbEntity
  8
product
100
AcDbPolyline
 90
        7
 70
   128
 43
0.0
 10
56.49429518360034
 20
122.6065303670663
 10
56.24955945080841
 20
122.4260796516485
 10
56.02110235663076
 20
122.2240727052499
 10
55.8131501989119
 20
121.999202449637
 10
55.62843446609736
 20
121.7510112900957
 10
55.46414271067624
 20
121.4822013820774
 10
55.31618356657964
 20
121.196202339296
  0
LWPOLYLINE
  5
17FD2
330
1F
100
AcDbEntity
  8
product
100
AcDbPolyline
 90
        7
 70
   128
 43
0.0
 10
55.31616596678304
 20
99.88465663875725
 10
55.46419551006647
 20
99.59858133019032
 10
55.6285658779127
 20
99.32971392950284
 10
55.81336960971066
 20
99.08148287708915
 10
56.02142149961082
 20
98.85658798176079
 10
56.24998419256849
 20
98.65457164880396
 10
56.49482787078
 20
98.47411976006629
  0
LWPOLYLINE
  5
17FD3
330
1F
100
AcDbEntity
  8
product
100
AcDbPolyline
 90
        7
 70
   128
 43
0.0
 10
56.49482787078
 20
98.47411976006629
 10
56.75232462948883
 20
98.31484042674141
 10
57.0215322929123
 20
98.18040965969714
 10
57.30224318344949
 20
98.07562399019015
 10
57.59414754467866
 20
98.00393180505103
 10
57.89648858534246
 20
97.9629524384482
 10
58.20839100888588
 20
97.94872710944709
  0
LWPOLYLINE
  5
17FD4
330
1F
100
AcDbEntity
  8
product
100
AcDbPolyline
 90
        9
 70
   128
 43
0.0
 10
104.7194429359117
 20
118.3331953063309
 10
104.702570597489
 20
118.6407476467934
 10
104.6661695246639
 20
118.9372766479317
 10
104.6067995438443
 20
119.2217597615585
 10
104.5210181347986
 20
119.493176199466
 10
104.406490391166
 20
119.7506142921858
 10
104.2655606058656
 20
119.9936246582427
 10
104.1018074042233
 20
120.2218817013979
 10
103.9188117582046
 20
120.4350592387527
  0
LWPOLYLINE
  5
17FD5
330
1F
100
AcDbEntity
  8
product
100
AcDbPolyline
 90
        9
 70
   128
 43
0.0
 10
103.9188117582046
 20
120.4350592387527
 10
103.7195937929209
 20
120.6323341864824
 10
103.5047589413782
 20
120.810731592287
 10
103.2742626174247
 20
120.9667033371548
 10
103.0280602349089
 20
121.0967001287541
 10
102.7662738190879
 20
121.1981829030831
 10
102.4897293870863
 20
121.2729010799323
 10
102.1994453804718
 20
121.3237398526385
 10
101.8964308542547
 20
121.3535820678987
  0
LWPOLYLINE
  5
17FD6
330
1F
100
AcDbEntity
  8
product
100
AcDbPolyline
 90
        9
 70
   128
 43
0.0
 10
101.8962337365319
 20
99.7270610193153
 10
102.1992717291446
 20
99.75690675453479
 10
102.4895792021546
 20
99.80775256715965
 10
102.7661400606332
 20
99.88248247720667
 10
103.0279405562914
 20
99.98397933137299
 10
103.2741546720049
 20
100.113993722769
 10
103.5046603825165
 20
100.2699842407532
 10
103.7194999273385
 20
100.4484015929941
 10
103.9187225859014
 20
100.6456964871599
  0
LWPOLYLINE
  5
17FD7
330
1F
100
AcDbEntity
  8
product
100
AcDbPolyline
 90
        9
 70
   128
 43
0.0
 10
103.9187225859014
 20
100.6456964871599
 10
104.1017205785597
 20
100.8588939709511
 10
104.2654761268416
 20
101.0871709605425
 10
104.4064059121422
 20
101.3302000997158
 10
104.520931309135
 20
101.5876552055724
 10
104.6067056782619
 20
101.8590880699569
 10
104.6660709658026
 20
102.143585263421
 10
104.7024673453484
 20
102.4401248244374
 10
104.7193373371317
 20
102.7476859647981
  0
ARC
  5
17FD8
330
1F
100
AcDbEntity
  8
product
100
AcDbCircle
 10
74.5120147796531
 20
121.6115894668775
 30
0.0
 40
16.3754617092012
100
AcDbArc
 50
174.6725209504551
 51
178.1110334607578
  0
ARC
  5
17FD9
330
1F
100
AcDbEntity
  8
product
100
AcDbCircle
 10
108.6224083140116
 20
119.1857209385625
 30
0.0
 40
48.50757740077623
100
AcDbArc
 50
175.5306200397688
 51
178.2977516932995
  0
ARC
  5
17FDA
330
1F
100
AcDbEntity
  8
product
100
AcDbCircle
 10
215.6311040457033
 20
114.83680504768
 30
0.0
 40
157.6554265294123
100
AcDbArc
 50
177.340756606728
 51
178.0872480894291
  0
SPLINE
  5
17FDB
330
1F
100
AcDbEntity
  8
product
100
AcDbSpline
210
0.0
220
0.0
230
1.0
 70
    12
 71
     3
 72
    11
 73
     7
 74
     0
 42
0.0000000001
 43
0.0000000001
 40
0.0
 40
0.0
 40
0.0
 40
0.0
 40
0.2714134694587797
 40
0.5483012811653614
 40
0.7712296444952769
 40
1.0
 40
1.0
 40
1.0
 40
1.0
 10
58.14545178929847
 20
122.1513691184612
 30
0.0
 41
1.0
 10
58.03582566350996
 20
122.145087954673
 30
0.0
 41
1.0
 10
57.8143622802122
 20
122.1323989375833
 30
0.0
 41
1.0
 10
57.51048274137906
 20
122.0894953852452
 30
0.0
 41
1.0
 10
57.22988976567444
 20
122.0359633713339
 30
0.0
 41
1.0
 10
57.06182799362455
 20
121.9929411936534
 30
0.0
 41
1.0
 10
56.97671030403308
 20
121.9711518936794
 30
0.0
 41
1.0
  0
SPLINE
  5
17FDC
330
1F
100
AcDbEntity
  8
product
100
AcDbSpline
210
0.0
220
0.0
230
1.0
 70
    12
 71
     3
 72
    11
 73
     7
 74
     0
 42
0.0000000001
 43
0.0000000001
 40
0.0
 40
0.0
 40
0.0
 40
0.0
 40
0.2901553508630504
 40
0.5719762270228283
 40
0.7880979165889359
 40
0.9999999999999998
 40
0.9999999999999998
 40
0.9999999999999998
 40
0.9999999999999998
 10
56.49429518360034
 20
122.6065303670663
 30
0.0
 41
1.0
 10
56.53728677654612
 20
122.5536119914917
 30
0.0
 41
1.0
 10
56.62203506415721
 20
122.44929527732
 30
0.0
 41
1.0
 10
56.74745017603868
 20
122.2857308584455
 30
0.0
 41
1.0
 10
56.86512065855504
 20
122.127295921183
 30
0.0
 41
1.0
 10
56.93975902580632
 20
122.0228567035568
 30
0.0
 41
1.0
 10
56.97671030403308
 20
121.9711518936794
 30
0.0
 41
1.0
  0
ARC
  5
17FDD
330
1F
100
AcDbEntity
  8
product
100
AcDbCircle
 10
212.9201367648181
 20
106.2004025350114
 30
0.0
 40
154.9451289622563
100
AcDbArc
 50
181.9300255639512
 51
182.6895408255272
  0
ARC
  5
17FDE
330
1F
100
AcDbEntity
  8
product
100
AcDbCircle
 10
108.450719066846
 20
101.8862063068513
 30
0.0
 40
48.33572137691445
100
AcDbArc
 50
181.698052577285
 51
184.4750209125517
  0
ARC
  5
17FDF
330
1F
100
AcDbEntity
  8
product
100
AcDbCircle
 10
74.19528339093449
 20
99.46309003650002
 30
0.0
 40
16.05845643609752
100
AcDbArc
 50
181.9033132350412
 51
185.4112128325615
  0
SPLINE
  5
17FE0
330
1F
100
AcDbEntity
  8
product
100
AcDbSpline
210
0.0
220
0.0
230
1.0
 70
    12
 71
     3
 72
    11
 73
     7
 74
     0
 42
0.0000000001
 43
0.0000000001
 40
0.0
 40
0.0
 40
0.0
 40
0.0
 40
0.272473389310358
 40
0.5497521739229167
 40
0.7723178646167311
 40
1.0
 40
1.0
 40
1.0
 40
1.0
 10
58.14568645325403
 20
98.92974095002479
 30
0.0
 41
1.0
 10
58.03528871521916
 20
98.93541290815162
 30
0.0
 41
1.0
 10
57.81254624251551
 20
98.94685685619563
 30
0.0
 41
1.0
 10
57.50653988987528
 20
98.98632985985697
 30
0.0
 41
1.0
 10
57.22408300060533
 20
99.03575036739992
 30
0.0
 41
1.0
 10
57.05458628193742
 20
99.07566649265744
 30
0.0
 41
1.0
 10
56.96887487454865
 20
99.09585135110329
 30
0.0
 41
1.0
  0
SPLINE
  5
17FE1
330
1F
100
AcDbEntity
  8
product
100
AcDbSpline
210
0.0
220
0.0
230
1.0
 70
    12
 71
     3
 72
    11
 73
     7
 74
     0
 42
0.0000000001
 43
0.0000000001
 40
0.0
 40
0.0
 40
0.0
 40
0.0
 40
0.2901870090380345
 40
0.5714759115745291
 40
0.7874510889845428
 40
0.9999999999999998
 40
0.9999999999999998
 40
0.9999999999999998
 40
0.9999999999999998
 10
56.49482787078
 20
98.47411976006629
 30
0.0
 41
1.0
 10
56.5346430799384
 20
98.52162302632844
 30
0.0
 41
1.0
 10
56.61305263046847
 20
98.61517294946228
 30
0.0
 41
1.0
 10
56.73545750208313
 20
98.77363790872008
 30
0.0
 41
1.0
 10
56.8535070905134
 20
98.93288201702659
 30
0.0
 41
1.0
 10
56.93062447734837
 20
99.04181857399818
 30
0.0
 41
1.0
 10
56.96887487454865
 20
99.09585135110329
 30
0.0
 41
1.0
  0
SPLINE
  5
17FE2
330
1F
100
AcDbEntity
  8
product
100
AcDbSpline
210
0.0
220
0.0
230
1.0
 70
    12
 71
     3
 72
    11
 73
     7
 74
     0
 42
0.0000000001
 43
0.0000000001
 40
0.0
 40
0.0
 40
0.0
 40
0.0
 40
0.2884248189126091
 40
0.5690991044184396
 40
0.785676073576478
 40
1.0
 40
1.0
 40
1.0
 40
1.0
 10
56.37839465582647
 20
120.7887435796278
 30
0.0
 41
1.0
 10
56.42885662615118
 20
120.9105517936297
 30
0.0
 41
1.0
 10
56.52842455594032
 20
121.1508949990469
 30
0.0
 41
1.0
 10
56.68302768966691
 20
121.4660352776048
 30
0.0
 41
1.0
 10
56.83193898257719
 20
121.7395114013824
 30
0.0
 41
1.0
 10
56.92862170454077
 20
121.8942080159261
 30
0.0
 41
1.0
 10
56.97671030403308
 20
121.9711518936794
 30
0.0
 41
1.0
  0
ARC
  5
17FE3
330
1F
100
AcDbEntity
  8
product
100
AcDbCircle
 10
46.16281702961964
 20
95.74585991097722
 30
0.0
 40
27.04633151979442
100
AcDbArc
 50
67.8083043302535
 51
70.21857761639622
  0
ARC
  5
17FE4
330
1F
100
AcDbEntity
  8
product
100
AcDbCircle
 10
46.13657195304017
 20
125.3917889944064
 30
0.0
 40
27.1086470939762
100
AcDbArc
 50
289.7929629171263
 51
292.197218499625
  0
SPLINE
  5
17FE5
330
1F
100
AcDbEntity
  8
product
100
AcDbSpline
210
0.0
220
0.0
230
1.0
 70
    12
 71
     3
 72
    11
 73
     7
 74
     0
 42
0.0000000001
 43
0.0000000001
 40
0.0
 40
0.0
 40
0.0
 40
0.0
 40
0.2893135273370986
 40
0.5703254581921736
 40
0.7866058701909646
 40
1.0
 40
1.0
 40
1.0
 40
1.0
 10
56.37810601916067
 20
100.292192837531
 30
0.0
 41
1.0
 10
56.42841132715807
 20
100.1692678667409
 30
0.0
 41
1.0
 10
56.52757847671091
 20
99.92694514877371
 30
0.0
 41
1.0
 10
56.68041954775095
 20
99.60823241764815
 30
0.0
 41
1.0
 10
56.82693599763865
 20
99.33130171055296
 30
0.0
 41
1.0
 10
56.92177427011689
 20
99.17398254732784
 30
0.0
 41
1.0
 10
56.96887487454865
 20
99.09585135110329
 30
0.0
 41
1.0
  0
ARC
  5
17FE6
330
1F
100
AcDbEntity
  8
product
100
AcDbCircle
 10
10.84563947611855
 20
7.148685357246506
 30
0.0
 40
122.422606682922
100
AcDbArc
 50
67.31305859771779
 51
68.16524726280369
  0
ARC
  5
17FE7
330
1F
100
AcDbEntity
  8
product
100
AcDbCircle
 10
122.4733331506472
 20
293.6971781968578
 30
0.0
 40
187.031831986009
100
AcDbArc
 50
248.7976622273759
 51
249.4545079000621
  0
ARC
  5
17FE8
330
1F
100
AcDbEntity
  8
product
100
AcDbCircle
 10
122.3967887966864
 20
-72.41592577753855
 30
0.0
 40
186.8170679695894
100
AcDbArc
 50
110.5451072363658
 51
111.2027191853609
  0
ARC
  5
17FE9
330
1F
100
AcDbEntity
  8
product
100
AcDbCircle
 10
10.71806064238853
 20
214.213113036407
 30
0.0
 40
122.7306636613995
100
AcDbArc
 50
291.8411471556482
 51
292.6910647512542
  0
LWPOLYLINE
  5
17FEA
330
1F
100
AcDbEntity
  8
product
100
AcDbPolyline
 90
       13
 70
   128
 43
0.0
 10
100.0059662930625
 20
121.3640832799211
 10
99.99270543292006
 20
121.3197787250644
 10
99.97883913977126
 20
121.2426728424648
 10
99.96463023724686
 20
121.1311218111119
 10
99.95037440193165
 20
120.9841599888274
 10
99.93641893647964
 20
120.8040225497904
 10
99.923115836825
 20
120.593858684288
 10
99.91081005898218
 20
120.3577779448462
 10
99.89976207994278
 20
120.1022130571536
 10
99.89018309726681
 20
119.8338102910986
 10
99.88224676228128
 20
119.559484606799
 10
99.87596715482391
 20
119.285553744605
 10
99.87131846185935
 20
119.0177663847741
  0
LWPOLYLINE
  5
17FEB
330
1F
100
AcDbEntity
  8
product
100
AcDbPolyline
 90
       13
 70
   128
 43
0.0
 10
99.87136304801083
 20
102.0622114301251
 10
99.87846632595324
 20
101.7945801218249
 10
99.88690953508331
 20
101.5207959246033
 10
99.89663635605143
 20
101.246601652119
 10
99.90755292327571
 20
100.9783080048033
 10
99.91943630599781
 20
100.722826422815
 10
99.93203306714555
 20
100.4867996560831
 10
99.94506160997207
 20
100.2766592569762
 10
99.95820044485776
 20
100.0965112580612
 10
99.97113512210194
 20
99.94951071622404
 10
99.98356996512029
 20
99.83789045900417
 10
99.99528673643386
 20
99.760691884142
 10
100.0061070914362
 20
99.71627351726676
  0
LWPOLYLINE
  5
17FEC
330
1F
100
AcDbEntity
  8
product
100
AcDbPolyline
 90
        9
 70
   128
 43
0.0
 10
101.8964308542547
 20
121.3535820678987
 10
101.8817361973419
 20
121.311449327953
 10
101.8661521640367
 20
121.2494804438228
 10
101.8496177417105
 20
121.1648946476319
 10
101.8320789576532
 20
121.054914691463
 10
101.8135170387488
 20
120.9178603813928
 10
101.7940774766496
 20
120.7561839557593
 10
101.7739409626017
 20
120.5733103349977
 10
101.7532881878512
 20
120.3726620929032
  0
ARC
  5
17FED
330
1F
100
AcDbEntity
  8
product
100
AcDbCircle
 10
164.6529545666346
 20
114.2514684919992
 30
0.0
 40
63.19681195805704
100
AcDbArc
 50
174.4416614376201
 51
176.3471481837423
  0
SPLINE
  5
17FEE
330
1F
100
AcDbEntity
  8
product
100
AcDbSpline
210
0.0
220
0.0
230
1.0
 70
    12
 71
     3
 72
    11
 73
     7
 74
     0
 42
0.0000000001
 43
0.0000000001
 40
0.0
 40
0.0
 40
0.0
 40
0.0
 40
0.2869538189406359
 40
0.5669663533187359
 40
0.7840110158077964
 40
1.0
 40
1.0
 40
1.0
 40
1.0
 10
101.7532881878512
 20
120.3726620929032
 30
0.0
 41
1.0
 10
101.9031494928781
 20
120.339589154755
 30
0.0
 41
1.0
 10
102.1992470249774
 20
120.2742432980428
 30
0.0
 41
1.0
 10
102.5951759288823
 20
120.1499509379822
 30
0.0
 41
1.0
 10
102.9437579774865
 20
120.0183365906998
 30
0.0
 41
1.0
 10
103.1442780619916
 20
119.9243163454964
 30
0.0
 41
1.0
 10
103.2442936836285
 20
119.8774208273059
 30
0.0
 41
1.0
  0
SPLINE
  5
17FEF
330
1F
100
AcDbEntity
  8
product
100
AcDbSpline
210
0.0
220
0.0
230
1.0
 70
    12
 71
     3
 72
    11
 73
     7
 74
     0
 42
0.0000000001
 43
0.0000000001
 40
0.0
 40
0.0
 40
0.0
 40
0.0
 40
0.2848205894774455
 40
0.5643873507958317
 40
0.7822380362837576
 40
1.0
 40
1.0
 40
1.0
 40
1.0
 10
103.9188117582046
 20
120.4350592387527
 30
0.0
 41
1.0
 10
103.8679924123405
 20
120.3960281409627
 30
0.0
 41
1.0
 10
103.7672911391848
 20
120.3186859167898
 30
0.0
 41
1.0
 10
103.5956222444633
 20
120.178027628933
 30
0.0
 41
1.0
 10
103.4217951236624
 20
120.0314874917053
 30
0.0
 41
1.0
 10
103.3034527959964
 20
119.9287694085323
 30
0.0
 41
1.0
 10
103.2442936836285
 20
119.8774208273059
 30
0.0
 41
1.0
  0
ARC
  5
17FF0
330
1F
100
AcDbEntity
  8
product
100
AcDbCircle
 10
164.5923032877595
 20
106.8264217550388
 30
0.0
 40
63.13646086738399
100
AcDbArc
 50
183.6546286639793
 51
185.5614783171794
  0
LWPOLYLINE
  5
17FF1
330
1F
100
AcDbEntity
  8
product
100
AcDbPolyline
 90
        9
 70
   128
 43
0.0
 10
101.753039444058
 20
100.7076301716968
 10
101.7736992587272
 20
100.5070464621903
 10
101.793842812694
 20
100.3242350273769
 10
101.8132894147118
 20
100.1626160944125
 10
101.8318560268953
 20
100.0256122370928
 10
101.8494018508711
 20
99.91567569375586
 10
101.865943313116
 20
99.83112392383846
 10
101.88153438634
 20
99.76917850610385
 10
101.8962337365319
 20
99.7270610193153
  0
SPLINE
  5
17FF2
330
1F
100
AcDbEntity
  8
product
100
AcDbSpline
210
0.0
220
0.0
230
1.0
 70
    12
 71
     3
 72
    11
 73
     7
 74
     0
 42
0.0000000001
 43
0.0000000001
 40
0.0
 40
0.0
 40
0.0
 40
0.0
 40
0.2849463488446373
 40
0.5645557255166857
 40
0.7823625289207732
 40
1.0
 40
1.0
 40
1.0
 40
1.0
 10
103.9187225859014
 20
100.6456964871599
 30
0.0
 41
1.0
 10
103.8677993038568
 20
100.6846590382406
 30
0.0
 41
1.0
 10
103.7669065198049
 20
100.7618543817938
 30
0.0
 41
1.0
 10
103.5951441196805
 20
100.9021348525125
 30
0.0
 41
1.0
 10
103.4213570192296
 20
101.0482208205283
 30
0.0
 41
1.0
 10
103.3030945259618
 20
101.1506090009597
 30
0.0
 41
1.0
 10
103.2439862738463
 20
101.201783183199
 30
0.0
 41
1.0
  0
SPLINE
  5
17FF3
330
1F
100
AcDbEntity
  8
product
100
AcDbSpline
210
0.0
220
0.0
230
1.0
 70
    12
 71
     3
 72
    10
 73
     6
 74
     0
 42
0.0000000001
 43
0.0000000001
 40
0.0
 40
0.0
 40
0.0
 40
0.0
 40
0.5
 40
0.5
 40
1.0
 40
1.0
 40
1.0
 40
1.0
 10
103.2439859473766
 20
101.2017829318103
 30
0.0
 41
1.0
 10
103.0202580306288
 20
101.091280266342
 30
0.0
 41
1.0
 10
102.7841485543874
 20
100.9948495578039
 30
0.0
 41
1.0
 10
102.2871664829183
 20
100.8301320545881
 30
0.0
 41
1.0
 10
102.0262938876906
 20
100.7618452599104
 30
0.0
 41
1.0
 10
101.7530397329692
 20
100.707630422163
 30
0.0
 41
1.0
  0
ARC
  5
17FF4
330
1F
100
AcDbEntity
  8
product
100
AcDbCircle
 10
103.1082211001037
 20
160.8917703874032
 30
0.0
 40
42.58906372222155
100
AcDbArc
 50
270.6574261908071
 51
272.1681210711797
  0
LINE
  5
17FF5
330
1F
100
AcDbEntity
  8
product
100
AcDbLine
 10
102.2311320544247
 20
116.5570185448765
 30
0.0
 11
104.5645952313921
 21
116.5570185448765
 31
0.0
  0
ARC
  5
17FF6
330
1F
100
AcDbEntity
  8
product
100
AcDbCircle
 10
98.10367514980612
 20
444.2351386440813
 30
0.0
 40
325.975916379555
100
AcDbArc
 50
270.6118314838107
 51
270.9655707532704
  0
ARC
  5
17FF7
330
1F
100
AcDbEntity
  8
product
100
AcDbCircle
 10
98.09994955158323
 20
-230.0230895180597
 30
0.0
 40
332.8433009201008
100
AcDbArc
 50
89.05376834691992
 51
89.40020252899509
  0
LINE
  5
17FF8
330
1F
100
AcDbEntity
  8
product
100
AcDbLine
 10
102.2311320544247
 20
104.5231822007808
 30
0.0
 11
104.5645952313921
 21
104.5231822007808
 31
0.0
  0
ARC
  5
17FF9
330
1F
100
AcDbEntity
  8
product
100
AcDbCircle
 10
103.1077865443917
 20
59.31067086655083
 30
0.0
 40
43.46689978136176
100
AcDbArc
 50
87.87525160200813
 51
89.35571166235105
  0
SPLINE
  5
17FFA
330
1F
100
AcDbEntity
  8
product
100
AcDbSpline
210
0.0
220
0.0
230
1.0
 70
    12
 71
     3
 72
    11
 73
     7
 74
     0
 42
0.0000000001
 43
0.0000000001
 40
0.0
 40
0.0
 40
0.0
 40
0.0
 40
0.2919494703201551
 40
0.5729018240584791
 40
0.7880354844627116
 40
1.0
 40
1.0
 40
1.0
 40
1.0
 10
103.5968880104287
 20
118.3055102394845
 30
0.0
 41
1.0
 10
103.5772444792149
 20
118.465901117233
 30
0.0
 41
1.0
 10
103.5386973468946
 20
118.7806412889611
 30
0.0
 41
1.0
 10
103.451863664588
 20
119.2005386134288
 30
0.0
 41
1.0
 10
103.3545404493472
 20
119.5658920561488
 30
0.0
 41
1.0
 10
103.2808603657342
 20
119.7740928660046
 30
0.0
 41
1.0
 10
103.2442936836285
 20
119.8774208273059
 30
0.0
 41
1.0
  0
SPLINE
  5
17FFB
330
1F
100
AcDbEntity
  8
product
100
AcDbSpline
210
0.0
220
0.0
230
1.0
 70
    12
 71
     3
 72
    11
 73
     7
 74
     0
 42
0.0000000001
 43
0.0000000001
 40
0.0
 40
0.0
 40
0.0
 40
0.0
 40
0.2920686124240586
 40
0.5730619597568877
 40
0.7881545319793345
 40
1.0
 40
1.0
 40
1.0
 40
1.0
 10
103.5965594808904
 20
102.7748225046478
 30
0.0
 41
1.0
 10
103.5768499189307
 20
102.6143031274497
 30
0.0
 41
1.0
 10
103.5381781831738
 20
102.2993512806467
 30
0.0
 41
1.0
 10
103.4513223766082
 20
101.8791422916498
 30
0.0
 41
1.0
 10
103.3540740419571
 20
101.5135482942618
 30
0.0
 41
1.0
 10
103.280495661545
 20
101.3051766255957
 30
0.0
 41
1.0
 10
103.2439862738463
 20
101.201783183199
 30
0.0
 41
1.0
  0
SPLINE
  5
17FFC
330
1F
100
AcDbEntity
  8
product
100
AcDbSpline
210
0.0
220
0.0
230
1.0
 70
    28
 71
     3
 72
     8
 73
     4
 74
     0
 42
0.0000000001
 43
0.0000000001
 40
0.0
 40
0.0
 40
0.0
 40
0.0
 40
1.0
 40
1.0
 40
1.0
 40
1.0
 10
102.2311317299225
 20
104.5231824820019
 30
0.0
 41
1.0
 10
102.2311317299222
 20
108.5344611296999
 30
0.0
 41
1.0
 10
102.231131729922
 20
112.5457397773979
 30
0.0
 41
1.0
 10
102.2311317299218
 20
116.5570184250957
 30
0.0
 41
1.0
  0
LINE
  5
17FFD
330
1F
100
AcDbEntity
  8
product
100
AcDbLine
 10
56.83553764153839
 20
118.5613713904213
 30
0.0
 11
56.83526425802984
 21
118.5613713904213
 31
0.0
  0
LINE
  5
17FFE
330
1F
100
AcDbEntity
  8
product
100
AcDbLine
 10
56.83553998817797
 20
102.5192177240828
 30
0.0
 11
56.83526660466942
 21
102.5192177240828
 31
0.0
  0
ELLIPSE
  5
17FFF
330
1F
100
AcDbEntity
  8
product
100
AcDbEllipse
 10
100.2771012101034
 20
110.5402986638711
 30
0.0
 11
1.93754739860441
 21
0.0000000000250679
 31
0.0
210
0.0
220
0.0
230
1.0
 40
0.9999253065146065
 41
0.0
 42
6.283185307179586
  0
CIRCLE
  5
18000
330
1F
100
AcDbEntity
  8
product
100
AcDbCircle
 10
100.2717879779932
 20
110.5400370257707
 30
0.0
 40
1.691724379679964
  0
LINE
  5
18001
330
1F
100
AcDbEntity
  8
product
100
AcDbLine
 10
101.7268556398687
 20
108.0502389492536
 30
0.0
 11
101.7265810830406
 21
108.0502389492536
 31
0.0
  0
CIRCLE
  5
18002
330
1F
100
AcDbEntity
  8
product
100
AcDbCircle
 10
-100.2955465180684
 20
110.5402986638713
 30
0.0000000000003859
 40
1.63977555277065
210
0.0
220
0.0000000000000035
230
-1.0
  0
CIRCLE
  5
18003
330
1F
100
AcDbEntity
  8
product
100
AcDbCircle
 10
100.2955465180684
 20
110.5402986638713
 30
0.0
 40
1.394029939483935
  0
LWPOLYLINE
  5
18004
330
1F
100
AcDbEntity
  8
product
100
AcDbPolyline
 90
       89
 70
   128
 43
0.0
 10
100.301396932412
 20
109.5560466953669
 10
100.3734559863478
 20
109.5587120149282
 10
100.4451257826426
 20
109.5666577445007
 10
100.5160276584897
 20
109.5798085404206
 10
100.5857829510842
 20
109.5980890590242
 10
100.6540129976201
 20
109.6214239566475
 10
100.7203376426678
 20
109.6497300492386
 10
100.7808048617071
 20
109.6808238655505
 10
100.8389893944402
 20
109.7160103516059
 10
100.8946221724166
 20
109.7551096668369
 10
100.9474341271852
 20
109.7979419706757
 10
100.9971561902962
 20
109.8443274225543
 10
101.0462255444872
 20
109.8971810582328
 10
101.0912869755034
 20
109.9534931770587
 10
101.1321259880958
 20
110.0129426663988
 10
101.1685280870149
 20
110.0752084136203
 10
101.2002787770118
 20
110.13996930609
 10
101.2271680496951
 20
110.2068976314173
 10
101.2479448787867
 20
110.2716540875125
 10
101.2642145318416
 20
110.3376899033861
 10
101.2759138764866
 20
110.4046875944588
 10
101.2829797803479
 20
110.4723296761511
 10
101.2853491110513
 20
110.5402986638837
 10
101.2826846033113
 20
110.6123796727197
 10
101.2747412939018
 20
110.6840713053166
 10
101.261594503537
 20
110.7549947834976
 10
101.2433195529322
 20
110.824771329086
 10
101.219991762802
 20
110.8930221639048
 10
101.1916942918619
 20
110.9593670166985
 10
101.1606099463056
 20
111.0198526588476
 10
101.1254341775782
 20
111.0780549192031
 10
101.0863467714712
 20
111.1337046473347
 10
101.0435275137743
 20
111.1865326928123
 10
100.9971561902787
 20
111.2362699052059
 10
100.9443186531046
 20
111.2853542098127
 10
100.8880236861903
 20
111.3304293701141
 10
100.828592304362
 20
111.3712808255083
 10
100.7663455224458
 20
111.4076940153934
 10
100.7016043552676
 20
111.4394543791677
 10
100.6346964154058
 20
111.4663518444548
 10
100.5699596832671
 20
111.4871350038156
 10
100.5039439810286
 20
111.5034096138974
 10
100.4369666965579
 20
111.5151125230909
 10
100.3693452177217
 20
111.5221805797869
 10
100.3013969323872
 20
111.5245506323758
 10
100.2293378784141
 20
111.5218853128147
 10
100.1576680821129
 20
111.5139395832422
 10
100.0867662062771
 20
111.5007887873222
 10
100.0170109137009
 20
111.4825082687186
 10
99.9487808671779
 20
111.4591733710952
 10
99.88245622213117
 20
111.4308672785041
 10
99.82198900309164
 20
111.3997734621921
 10
99.76380447035877
 20
111.3645869761368
 10
99.70817169238285
 20
111.3254876609059
 10
99.65535973761417
 20
111.282655357067
 10
99.60563767450299
 20
111.2362699051884
 10
99.55656832031104
 20
111.1834162695098
 10
99.51150688929374
 20
111.127104150684
 10
99.47066787670065
 20
111.0676546613439
 10
99.43426577778154
 20
111.0053889141225
 10
99.40251508778624
 20
110.9406280216527
 10
99.37562581510542
 20
110.8736996963253
 10
99.35484898601522
 20
110.8089432402302
 10
99.33857933295985
 20
110.7429074243565
 10
99.32687998831376
 20
110.6759097332839
 10
99.31981408445176
 20
110.6082676515917
 10
99.31744475374784
 20
110.540298663859
 10
99.32010926148814
 20
110.468217655023
 10
99.32805257089853
 20
110.3965260224261
 10
99.341199361264
 20
110.325602544245
 10
99.35947431186901
 20
110.2558259986567
 10
99.38280210199787
 20
110.187575163838
 10
99.41109957293589
 20
110.1212303110442
 10
99.44218391849268
 20
110.0607446688951
 10
99.47735968722099
 20
110.0025424085397
 10
99.51644709332981
 20
109.946892680408
 10
99.55926635102651
 20
109.8940646349303
 10
99.6056376745205
 20
109.8443274225369
 10
99.65847521169258
 20
109.7952431179301
 10
99.71477017860776
 20
109.7501679576287
 10
99.77420156043786
 20
109.7093165022345
 10
99.83644834235542
 20
109.6729033123494
 10
99.90118950953252
 20
109.6411429485751
 10
99.96809744939515
 20
109.6142454832878
 10
100.0328341815475
 20
109.5934623239269
 10
100.0988498838032
 20
109.5771877138451
 10
100.1658271682843
 20
109.5654848046516
 10
100.2334486471131
 20
109.5584167479558
 10
100.301396932412
 20
109.5560466953669
  0
SPLINE
  5
18005
330
1F
100
AcDbEntity
  8
product
100
AcDbSpline
210
0.0
220
0.0
230
1.0
 70
    12
 71
     3
 72
     8
 73
     4
 74
     0
 42
0.0000000001
 43
0.0000000001
 40
1.08277647095671
 40
1.08277647095671
 40
1.08277647095671
 40
1.08277647095671
 40
1.090040911362582
 40
1.090040911362582
 40
1.090040911362582
 40
1.090040911362582
 10
56.97243894373219
 20
97.98558051854605
 30
0.0
 41
1.0
 10
56.87619835838177
 20
97.98179738870166
 30
0.0
 41
1.0
 10
56.77995777764113
 20
97.97801402591435
 30
0.0
 41
1.0
 10
56.6837172019143
 20
97.97423040974102
 30
0.0
 41
1.0
  0
SPLINE
  5
18007
330
1F
100
AcDbEntity
  8
product
100
AcDbSpline
210
0.0
220
0.0
230
1.0
 70
    12
 71
     3
 72
     9
 73
     5
 74
     0
 42
0.0000000001
 43
0.0000000001
 40
0.9963357864938627
 40
0.9963357864938627
 40
0.9963357864938627
 40
0.9963357864938627
 40
0.9975217485771519
 40
1.0
 40
1.0
 40
1.0
 40
1.0
 10
45.04082201154756
 20
91.80397608463819
 30
0.0
 41
1.0
 10
45.04847633940904
 20
91.79038515896621
 30
0.0
 41
1.0
 10
45.07215410611752
 20
91.74840997906335
 30
0.0
 41
1.0
 10
45.09593242770688
 20
91.70649166091502
 30
0.0
 41
1.0
 10
45.11201463995052
 20
91.67814065696257
 30
0.0
 41
1.0
  0
SPLINE
  5
18008
330
1F
100
AcDbEntity
  8
product
100
AcDbSpline
210
0.0
220
0.0
230
1.0
 70
    12
 71
     3
 72
     8
 73
     4
 74
     0
 42
0.0000000001
 43
0.0000000001
 40
0.9989500374455511
 40
0.9989500374455511
 40
0.9989500374455511
 40
0.9989500374455511
 40
1.0
 40
1.0
 40
1.0
 40
1.0
 10
46.76460470476832
 20
90.86705237043199
 30
0.0
 41
1.0
 10
46.74205988080939
 20
90.86569953417749
 30
0.0
 41
1.0
 10
46.71951503482865
 20
90.86434708186548
 30
0.0
 41
1.0
 10
46.69697016683949
 20
90.86299501350817
 30
0.0
 41
1.0
  0
SPLINE
  5
18009
330
1F
100
AcDbEntity
  8
product
100
AcDbSpline
210
0.0
220
0.0
230
1.0
 70
    12
 71
     3
 72
     8
 73
     4
 74
     0
 42
0.0000000001
 43
0.0000000001
 40
0.997900074899133
 40
0.997900074899133
 40
0.997900074899133
 40
0.997900074899133
 40
1.0
 40
1.0
 40
1.0
 40
1.0
 10
46.83223911004825
 20
90.87111203097924
 30
0.0
 41
1.0
 10
46.78714955041755
 20
90.86840482273556
 30
0.0
 41
1.0
 10
46.74205990264545
 20
90.86569915021243
 30
0.0
 41
1.0
 10
46.69697016683949
 20
90.86299501350817
 30
0.0
 41
1.0
  0
SPLINE
  5
1800A
330
1F
100
AcDbEntity
  8
product
100
AcDbSpline
210
0.0
220
0.0
230
1.0
 70
    12
 71
     3
 72
    35
 73
    31
 74
     0
 42
0.0000000001
 43
0.0000000001
 40
0.0
 40
0.0
 40
0.0
 40
0.0
 40
0.0028667274708407
 40
0.0048009693794063
 40
0.0068974046354441
 40
0.0108778137180536
 40
0.0148582228127985
 40
0.0228161251698162
 40
0.0307716692936892
 40
0.0387253944929218
 40
0.0466778389768941
 40
0.0546295401842944
 40
0.0625810351102436
 40
0.0705328606326727
 40
0.078485553838502
 40
0.08643965235017
 40
0.0943956946530684
 40
0.1023542204244344
 40
0.1103157977577504
 40
0.118280677188911
 40
0.1262370489387897
 40
0.1341828930978884
 40
0.1421189389772287
 40
0.1500457545557588
 40
0.15796390205106
 40
0.1658739383027561
 40
0.1737764151464317
 40
0.181671879778786
 40
0.189560875114732
 40
0.1957910805078847
 40
0.1957910805078847
 40
0.1957910805078847
 40
0.1957910805078847
 10
45.11200701008078
 20
129.4024432433951
 30
0.0
 41
1.0
 10
45.09340687556255
 20
129.3696463767056
 30
0.0
 41
1.0
 10
45.06225683525281
 20
129.3147207675158
 30
0.0
 41
1.0
 10
45.01776205648297
 20
129.2356653017712
 30
0.0
 41
1.0
 10
44.96625915175695
 20
129.1437463891607
 30
0.0
 41
1.0
 10
44.90196941305202
 20
129.02814403587
 30
0.0
 41
1.0
 10
44.80096159156528
 20
128.8447523248298
 30
0.0
 41
1.0
 10
44.67614646863739
 20
128.6147879099187
 30
0.0
 41
1.0
 10
44.52867577611892
 20
128.3376724151132
 30
0.0
 41
1.0
 10
44.38352118481475
 20
128.0594175741323
 30
0.0
 41
1.0
 10
44.24068127427335
 20
127.7800242516217
 30
0.0
 41
1.0
 10
44.10015519225066
 20
127.4994928172513
 30
0.0
 41
1.0
 10
43.96194252920281
 20
127.2178234806849
 30
0.0
 41
1.0
 10
43.82604335125779
 20
126.9350162021613
 30
0.0
 41
1.0
 10
43.69245819133789
 20
126.6510707164668
 30
0.0
 41
1.0
 10
43.56118805209052
 20
126.3659865262246
 30
0.0
 41
1.0
 10
43.43223440627389
 20
126.0797629031435
 30
0.0
 41
1.0
 10
43.30559905573795
 20
125.7923985630226
 30
0.0
 41
1.0
 10
43.18128581063843
 20
125.5038955170753
 30
0.0
 41
1.0
 10
43.05936191133014
 20
125.2144053505144
 30
0.0
 41
1.0
 10
42.93990238589754
 20
124.9241133381302
 30
0.0
 41
1.0
 10
42.82297357744664
 20
124.633201440147
 30
0.0
 41
1.0
 10
42.70857801898955
 20
124.3417016658781
 30
0.0
 41
1.0
 10
42.59670586629385
 20
124.0496142329213
 30
0.0
 41
1.0
 10
42.48734859603678
 20
123.756941122321
 30
0.0
 41
1.0
 10
42.38049823568394
 20
123.4636841869315
 30
0.0
 41
1.0
 10
42.27614735516499
 20
123.1698451533489
 30
0.0
 41
1.0
 10
42.17428905916722
 20
122.8754256237
 30
0.0
 41
1.0
 10
42.08185678881569
 20
122.60102877469
 30
0.0
 41
1.0
 10
42.02386065193218
 20
122.4246159031362
 30
0.0
 41
1.0
 10
41.99852027874771
 20
122.3466907945343
 30
0.0
 41
1.0
  0
SPLINE
  5
1800B
330
1F
100
AcDbEntity
  8
product
100
AcDbSpline
210
0.0
220
0.0
230
1.0
 70
    12
 71
     2
 72
     6
 73
     3
 74
     0
 42
0.0000000001
 43
0.0000000001
 40
-0.1417653498787561
 40
-0.1417653498787561
 40
-0.1417653498787561
 40
-0.1192416816832517
 40
-0.1192416816832517
 40
-0.1192416816832517
 10
57.77436936347226
 20
120.7166536384254
 30
0.0
 41
1.0
 10
57.69064177503219
 20
120.5480021562372
 30
0.0
 41
1.0
 10
57.60982067339023
 20
120.3785359224973
 30
0.0
 41
1.0
  0
SPLINE
  5
1800C
330
1F
100
AcDbEntity
  8
product
100
AcDbSpline
210
0.0
220
0.0
230
1.0
 70
    12
 71
     2
 72
     6
 73
     3
 74
     0
 42
0.0000000001
 43
0.0000000001
 40
1.119708523794898
 40
1.119708523794898
 40
1.119708523794898
 40
1.141775708961348
 40
1.141775708961348
 40
1.141775708961348
 10
57.61293592726429
 20
100.6952259976418
 30
0.0
 41
1.0
 10
57.69215699313781
 20
100.5291858376845
 30
0.0
 41
1.0
 10
57.774168263923
 20
100.3639118169085
 30
0.0
 41
1.0
  0
SPLINE
  5
1800E
330
1F
100
AcDbEntity
  8
product
100
AcDbSpline
210
0.0
220
0.0
230
1.0
 70
    12
 71
     3
 72
     8
 73
     4
 74
     0
 42
0.0000000001
 43
0.0000000001
 40
-0.0942621667326114
 40
-0.0942621667326114
 40
-0.0942621667326114
 40
-0.0942621667326114
 40
-0.088356485141759
 40
-0.088356485141759
 40
-0.088356485141759
 40
-0.088356485141759
 10
56.51593936029485
 20
123.112931032698
 30
0.0
 41
1.0
 10
56.59417867120601
 20
123.109855304725
 30
0.0
 41
1.0
 10
56.67241798572376
 20
123.1067797545404
 30
0.0
 41
1.0
 10
56.75065730362234
 20
123.1037043710054
 30
0.0
 41
1.0
  0
SPLINE
  5
1800F
330
1F
100
AcDbEntity
  8
product
100
AcDbSpline
210
0.0
220
0.0
230
1.0
 70
    12
 71
     3
 72
    15
 73
    11
 74
     0
 42
0.0000000001
 43
0.0000000001
 40
0.9614795238929493
 40
0.9614795238929493
 40
0.9614795238929493
 40
0.9614795238929493
 40
0.9633043736494581
 40
0.9712422586643299
 40
0.9791860256390627
 40
0.9871362241444467
 40
0.9911148243745088
 40
0.9950934450971844
 40
0.9975217485771519
 40
1.0
 40
1.0
 40
1.0
 40
1.0
 10
44.38761324786833
 20
93.01419479696566
 30
0.0
 41
1.0
 10
44.39863098736918
 20
92.99287204490594
 30
0.0
 41
1.0
 10
44.45768217801196
 20
92.87885336889157
 30
0.0
 41
1.0
 10
44.56582495735597
 20
92.67260092370358
 30
0.0
 41
1.0
 10
44.71365093752547
 20
92.39620150629599
 30
0.0
 41
1.0
 10
44.83880798480072
 20
92.16674195042749
 30
0.0
 41
1.0
 10
44.94011877967091
 20
91.98368725564444
 30
0.0
 41
1.0
 10
45.00675972134899
 20
91.86445261747669
 30
0.0
 41
1.0
 10
45.06409213232564
 20
91.76262226822927
 30
0.0
 41
1.0
 10
45.09593242770688
 20
91.70649166091502
 30
0.0
 41
1.0
 10
45.11201463995052
 20
91.67814065696257
 30
0.0
 41
1.0
  0
SPLINE
  5
18010
330
1F
100
AcDbEntity
  8
product
100
AcDbSpline
210
0.0
220
0.0
230
1.0
 70
    12
 71
     3
 72
    34
 73
    30
 74
     0
 42
0.0000000001
 43
0.0000000001
 40
0.0
 40
0.0
 40
0.0
 40
0.0
 40
0.0624999999999998
 40
0.0624999999999998
 40
0.093750000000002
 40
0.093750000000002
 40
0.1250000000000042
 40
0.1250000000000042
 40
0.2500000000000107
 40
0.2500000000000107
 40
0.3750000000000174
 40
0.3750000000000174
 40
0.4062500000000171
 40
0.4062500000000171
 40
0.4375000000000167
 40
0.4375000000000167
 40
0.5000000000000174
 40
0.5000000000000174
 40
0.6250000000000188
 40
0.6250000000000188
 40
0.6875000000000196
 40
0.6875000000000196
 40
0.7187500000000196
 40
0.7187500000000196
 40
0.7500000000000196
 40
0.7500000000000196
 40
0.8750000000000097
 40
0.8750000000000097
 40
1.0
 40
1.0
 40
1.0
 40
1.0
 10
49.39695039401749
 20
124.4363318461718
 30
0.0
 41
1.0
 10
49.41862127786066
 20
124.4867852148123
 30
0.0
 41
1.0
 10
49.44242474155476
 20
124.5361252161548
 30
0.0
 41
1.0
 10
49.48128111668257
 20
124.6084855625398
 30
0.0
 41
1.0
 10
49.49475914103641
 20
124.6323303779534
 30
0.0
 41
1.0
 10
49.52276745956829
 20
124.6794685162128
 30
0.0
 41
1.0
 10
49.5373251564622
 20
124.7028011918825
 30
0.0
 41
1.0
 10
49.61222101301496
 20
124.8172783959028
 30
0.0
 41
1.0
 10
49.67905482321907
 20
124.9023513021676
 30
0.0
 41
1.0
 10
49.82570983925802
 20
125.0602464892293
 30
0.0
 41
1.0
 10
49.90553652905806
 20
125.1330638064894
 30
0.0
 41
1.0
 10
50.0136063559446
 20
125.2162677526626
 30
0.0
 41
1.0
 10
50.03568989795372
 20
125.232551953595
 30
0.0
 41
1.0
 10
50.08044477496333
 20
125.2641384539429
 30
0.0
 41
1.0
 10
50.10306424568103
 20
125.279407954114
 30
0.0
 41
1.0
 10
50.17163050333124
 20
125.3236857330689
 30
0.0
 41
1.0
 10
50.21828402317964
 20
125.3511656191015
 30
0.0
 41
1.0
 10
50.36097169827645
 20
125.4277190646156
 30
0.0
 41
1.0
 10
50.4597196118973
 20
125.4709341158573
 30
0.0
 41
1.0
 10
50.61315709634209
 20
125.5243497434055
 30
0.0
 41
1.0
 10
50.66519205228065
 20
125.5402470651013
 30
0.0
 41
1.0
 10
50.74460934171316
 20
125.5611776521905
 30
0.0
 41
1.0
 10
50.77125996043765
 20
125.5676607912194
 30
0.0
 41
1.0
 10
50.82452588378806
 20
125.5795695250476
 30
0.0
 41
1.0
 10
50.85119654717368
 20
125.5850100703336
 30
0.0
 41
1.0
 10
50.98473230317654
 20
125.6097179632699
 30
0.0
 41
1.0
 10
51.09214220857348
 20
125.6215351199148
 30
0.0
 41
1.0
 10
51.30801456016548
 20
125.6305549760032
 30
0.0
 41
1.0
 10
51.41647807216123
 20
125.6277437458212
 30
0.0
 41
1.0
 10
51.52543702009916
 20
125.6179297301804
 30
0.0
 41
1.0
  0
SPLINE
  5
18011
330
1F
100
AcDbEntity
  8
product
100
AcDbSpline
210
0.0
220
0.0
230
1.0
 70
    12
 71
     2
 72
    12
 73
     9
 74
     0
 42
0.0000000001
 43
0.0000000001
 40
0.0
 40
0.0
 40
0.0
 40
0.25
 40
0.25
 40
0.5
 40
0.5
 40
0.75
 40
0.75
 40
1.0
 40
1.0
 40
1.0
 10
56.83553728418542
 20
118.5613715280658
 30
0.0
 41
1.0
 10
56.10925702650115
 20
116.6325163239905
 30
0.0
 41
1.0
 10
55.7410485775838
 20
114.6032857932527
 30
0.0
 41
1.0
 10
55.37554105159324
 20
112.5889402964705
 30
0.0
 41
1.0
 10
55.37541894412538
 20
110.5414329844396
 30
0.0
 41
1.0
 10
55.37529669795322
 20
108.4915998654916
 30
0.0
 41
1.0
 10
55.7416122496918
 20
106.4738696525403
 30
0.0
 41
1.0
 10
56.10951845232079
 20
104.4473778559117
 30
0.0
 41
1.0
 10
56.83553942866047
 20
102.5192178192118
 30
0.0
 41
1.0
  0
LWPOLYLINE
  5
18012
330
1F
100
AcDbEntity
  8
product
100
AcDbPolyline
 90
       14
 70
   128
 43
0.0
 10
58.15012451614825
 20
120.7022337233171
 10
58.12321320464161
 20
120.7032671762199
 10
58.09631291751021
 20
120.7043000969689
 10
58.06942365475447
 20
120.7053324855637
 10
58.04254541637442
 20
120.7063643420046
 10
58.01567820237005
 20
120.7073956662916
 10
57.98882201274114
 20
120.7084264584245
 10
57.9619768474879
 20
120.7094567184035
 10
57.93514270660989
 20
120.7104864462285
 10
57.90831959010802
 20
120.7115156418995
 10
57.88150749798138
 20
120.7125443054166
 10
57.85470643023041
 20
120.7135724367797
 10
57.82791638685512
 20
120.7146000359888
 10
57.80113736785551
 20
120.7156271030439
  0
LWPOLYLINE
  5
18013
330
1F
100
AcDbEntity
  8
product
100
AcDbPolyline
 90
       10
 70
   128
 43
0.0
 10
57.77416826851936
 20
100.363911817151
 10
57.81091997558428
 20
100.3653218533455
 10
57.84768667563866
 20
100.366732648253
 10
57.88446836868274
 20
100.3681442018734
 10
57.92126505471606
 20
100.3695565142065
 10
57.95807673373906
 20
100.3709695852526
 10
57.99490340575153
 20
100.3723834150116
 10
58.03174507075368
 20
100.3737980034833
 10
58.06860172874485
 20
100.375213350668
 10
58.10547337972593
 20
100.3766294565655
  0
LWPOLYLINE
  5
18014
330
1F
100
AcDbEntity
  8
product
100
AcDbPolyline
 90
       10
 70
   128
 43
0.0
 10
102.2304046117372
 20
118.9182316551477
 10
102.1947124939761
 20
118.9197243719582
 10
102.1590286568434
 20
118.9212166890571
 10
102.1233531003397
 20
118.9227086064445
 10
102.0876858244646
 20
118.9242001241205
 10
102.0520268292182
 20
118.925691242085
 10
102.0163761146
 20
118.9271819603381
 10
101.9807336806109
 20
118.9286722788797
 10
101.9450995272502
 20
118.9301621977098
 10
101.9094736545182
 20
118.9316517168285
  0
LINE
  5
18015
330
1F
100
AcDbEntity
  8
product
100
AcDbLine
 10
40.42976220103343
 20
110.5402986638711
 30
0.0
 11
40.12808353353068
 21
110.5402986638711
 31
0.0
  0
LINE
  5
18018
330
1F
100
AcDbEntity
  8
product
100
AcDbLine
 10
99.3570700428736
 20
110.5402986638709
 30
0.0
 11
101.3570700428736
 21
110.5402986638709
 31
0.0
  0
LINE
  5
18019
330
1F
100
AcDbEntity
  8
product
100
AcDbLine
 10
100.3570700428736
 20
109.5402986638709
 30
0.0
 11
100.3570700428736
 21
111.5402986638709
 31
0.0
  0
LINE
  5
1802B
330
1F
100
AcDbEntity
  8
product
100
AcDbLine
 10
112.4895185086673
 20
66.35860134380161
 30
0.0
 11
107.9895185086674
 21
44.60860134380161
 31
0.0
  0
LINE
  5
1802C
330
1F
100
AcDbEntity
  8
product
100
AcDbLine
 10
41.03964033042529
 20
66.35860134380161
 30
0.0
 11
48.4895185086674
 21
44.60860134380161
 31
0.0
  0
LINE
  5
1802D
330
1F
100
AcDbEntity
  8
product
100
AcDbLine
 10
41.03964033042529
 20
66.35860134380161
 30
0.0
 11
51.4895185086674
 21
44.60860134380161
 31
0.0
  0
LINE
  5
1802E
330
1F
100
AcDbEntity
  8
product
100
AcDbLine
 10
141.4340044927917
 20
124.5157492716065
 30
0.0
 11
141.4340044927917
 21
96.56552036836901
 31
0.0
  0
LWPOLYLINE
  5
1802F
330
1F
100
AcDbEntity
  8
product
100
AcDbPolyline
 90
        3
 70
   128
 43
0.0
 10
141.4270639396361
 20
124.6716975500786
 10
141.4330427372352
 20
124.5799920494681
 10
141.4335972041633
 20
124.5157316718095
  0
LWPOLYLINE
  5
18030
330
1F
100
AcDbEntity
  8
product
100
AcDbPolyline
 90
        3
 70
   128
 43
0.0
 10
141.4335285649563
 20
96.56552975492731
 10
141.4332483615264
 20
96.50780124847861
 10
141.4270921726433
 20
96.40893615057679
  0
LWPOLYLINE
  5
18031
330
1F
100
AcDbEntity
  8
product
100
AcDbPolyline
 90
       12
 70
   128
 43
0.0
 10
141.5440244884979
 20
125.1562821387826
 10
141.523394153488
 20
125.1345205768408
 10
141.4914901220461
 20
125.0896176288969
 10
141.4671670563616
 20
125.0437314389779
 10
141.4496394188422
 20
124.9982958038544
 10
141.4378316419133
 20
124.9543174318964
 10
141.4302927690031
 20
124.9108025212509
 10
141.4257443215472
 20
124.8640293015791
 10
141.4235716266464
 20
124.8030377928247
 10
141.4241357734626
 20
124.7467606829429
 10
141.4272706639148
 20
124.6830412057023
 10
141.4283490181242
 20
124.671662350485
  0
LWPOLYLINE
  5
18032
330
1F
100
AcDbEntity
  8
product
100
AcDbPolyline
 90
       10
 70
   128
 43
0.0
 10
141.4283191718023
 20
96.4088798312272
 10
141.4248363187032
 20
96.35382062727593
 10
141.4235134006523
 20
96.29411742363927
 10
141.4246323810591
 20
96.23685237850317
 10
141.4303020822289
 20
96.16971384742637
 10
141.441723470288
 20
96.10978067311284
 10
141.4563869608941
 20
96.06293588093457
 10
141.4795647198093
 20
96.01174041901563
 10
141.5120904640691
 20
95.9605519970154
 10
141.5414475849331
 20
95.92694694522391
  0
LWPOLYLINE
  5
18033
330
1F
100
AcDbEntity
  8
product
100
AcDbPolyline
 90
       15
 70
   128
 43
0.0
 10
141.4327216876107
 20
96.15701735409757
 10
141.3652566803056
 20
96.00027239149531
 10
141.1861835156408
 20
95.5944891324715
 10
141.0146971099996
 20
95.21810574715109
 10
140.8343808863615
 20
94.83534654215159
 10
140.6306525331821
 20
94.41759776802099
 10
140.4278269029077
 20
94.01688442376247
 10
140.2261185663929
 20
93.63313141691005
 10
140.0250502758176
 20
93.26494249692645
 10
139.8236725221506
 20
92.91021507476797
 10
139.6221316770344
 20
92.56897965674843
 10
139.4205459524364
 20
92.24121277647295
 10
139.2553833004095
 20
91.98336284851064
 10
139.0839868003966
 20
91.72574289122499
 10
138.9155819724902
 20
91.48078305435538
  0
LWPOLYLINE
  5
18034
330
1F
100
AcDbEntity
  8
product
100
AcDbPolyline
 90
       16
 70
   128
 43
0.0
 10
138.9154840002886
 20
129.600000831232
 10
138.9654084635569
 20
129.5286219224739
 10
139.1705314539585
 20
129.2259699520685
 10
139.3403973583199
 20
128.9658742900493
 10
139.5086270682493
 20
128.6978211732884
 10
139.6835972069793
 20
128.4089944298397
 10
139.8839483058397
 20
128.0656622893751
 10
140.0840528608814
 20
127.7090763286863
 10
140.2838438462122
 20
127.3391309489938
 10
140.4832653824776
 20
126.9556736187254
 10
140.6820420328595
 20
126.5590833201705
 10
140.881600847539
 20
126.1462155563207
 10
141.0816649230485
 20
125.71705038074
 10
141.2501543766438
 20
125.3421571115392
 10
141.4253772191214
 20
124.9416608314396
 10
141.4326910346315
 20
124.924645348004
  0
LWPOLYLINE
  5
18035
330
1F
100
AcDbEntity
  8
product
100
AcDbPolyline
 90
       60
 70
   128
 43
0.0
 10
138.865746388195
 20
129.2054626689706
 10
138.865491484473
 20
129.1078424633541
 10
138.8651459417981
 20
128.5310889127271
 10
138.8652717803445
 20
127.9918874616281
 10
138.8653747391552
 20
127.4131850268483
 10
138.8654254852356
 20
126.8467167974042
 10
138.8654794579454
 20
126.2260024746157
 10
138.8655313773456
 20
125.5994180329727
 10
138.8655818300962
 20
124.9679126881762
 10
138.8656305228669
 20
124.3326679732442
 10
138.8656768689982
 20
123.6943233474557
 10
138.8657217484797
 20
123.0493635447529
 10
138.8657645746517
 20
122.4013495906655
 10
138.8658050541839
 20
121.7501711931339
 10
138.8658434804068
 20
121.0957215800582
 10
138.8658798533199
 20
120.4378916326992
 10
138.8659141729234
 20
119.7766121251901
 10
138.8659461458875
 20
119.1118355380792
 10
138.8659757722118
 20
118.4434457127089
 10
138.8660033452268
 20
117.7713253171008
 10
138.866028571602
 20
117.0949809702887
 10
138.8660511580077
 20
116.4214942437981
 10
138.866071104444
 20
115.7448419005435
 10
138.8660889975706
 20
115.0642287230452
 10
138.8661042507277
 20
114.3805784072987
 10
138.8661174505753
 20
113.694825795838
 10
138.8661277171232
 20
113.0079333042121
 10
138.8661356370318
 20
112.321067505611
 10
138.8661412103008
 20
111.6351677891829
 10
138.8661438502702
 20
110.9511609675547
 10
138.8661441436002
 20
110.2699601035121
 10
138.8661420902906
 20
109.589746698062
 10
138.8661371036814
 20
108.9043262827639
 10
138.8661297704329
 20
108.2204445296908
 10
138.8661200905447
 20
107.53798572018
 10
138.866107770687
 20
106.8568360422124
 10
138.8660931041897
 20
106.1768819770999
 10
138.866075797723
 20
105.498091258548
 10
138.8660561446168
 20
104.8203841008125
 10
138.866034144871
 20
104.1436478651939
 10
138.8660095051556
 20
103.4677722596331
 10
138.8659825188006
 20
102.7927250178364
 10
138.8659531858062
 20
102.1264941008595
 10
138.8659217995021
 20
101.460389315759
 10
138.8658877732284
 20
100.7953211586829
 10
138.8658516936452
 20
100.1321872192628
 10
138.8658132674225
 20
99.47188508712942
 10
138.8657730812201
 20
98.81539037767915
 10
138.865730548378
 20
98.16372622575899
 10
138.8656862555565
 20
97.51775267476695
 10
138.8656402027551
 20
96.87830982166556
 10
138.8655923899741
 20
96.24596555322717
 10
138.8655425238835
 20
95.61651821132308
 10
138.8654906044832
 20
94.98920983137658
 10
138.8654372184332
 20
94.36705232525982
 10
138.8653820724037
 20
93.75000228014108
 10
138.8653107932271
 20
93.21469977066808
 10
138.8651523950569
 20
92.65253175821444
 10
138.8653509794296
 20
92.09179754253058
 10
138.8657977209354
 20
91.8756943323066
  0
ARC
  5
18036
330
1F
100
AcDbEntity
  8
product
100
AcDbCircle
 10
184.9632139526509
 20
-409.7400522054567
 30
0.0
 40
541.8936487299892
100
AcDbArc
 50
94.49340234456419
 51
94.84328952462822
  0
ARC
  5
18037
330
1F
100
AcDbEntity
  8
product
100
AcDbCircle
 10
184.9413163846675
 20
630.5616844082022
 30
0.0
 40
541.633761761998
100
AcDbArc
 50
265.1565910828942
 51
265.5067606288737
  0
LWPOLYLINE
  5
18038
330
1F
100
AcDbEntity
  8
product
100
AcDbPolyline
 90
       26
 70
   128
 43
0.0
 10
139.1990155515747
 20
130.2192907438087
 10
139.1935129751408
 20
130.2191593319934
 10
139.1284069272515
 20
130.2065672641248
 10
139.0622504648299
 20
130.1813127292006
 10
139.0050957117532
 20
130.1471632570318
 10
138.9571591455204
 20
130.1066051122294
 10
138.9183216741743
 20
130.0618230162227
 10
138.8883151941449
 20
130.0149735307653
 10
138.866644271156
 20
129.968389215578
 10
138.8524318486725
 20
129.9246631073723
 10
138.8442036503919
 20
129.8859306481464
 10
138.8401028977641
 20
129.8524511415711
 10
138.8386174749239
 20
129.8228928696975
 10
138.8388506722301
 20
129.7952799620174
 10
138.8405619591278
 20
129.7654729463507
 10
138.8448064434285
 20
129.7232627672996
 10
138.8467010615415
 20
129.7072117527221
 10
138.8484663211492
 20
129.6907747159376
 10
138.8523992890486
 20
129.6481456617256
 10
138.8564399090377
 20
129.5934478402661
 10
138.8601663726558
 20
129.5267962368976
 10
138.8630806056571
 20
129.4495871021576
 10
138.8644818428033
 20
129.3838307417805
 10
138.8651767414424
 20
129.3070639485971
 10
138.8655478038224
 20
129.2224617259293
 10
138.8655598303503
 20
129.2094531295391
  0
LWPOLYLINE
  5
18039
330
1F
100
AcDbEntity
  8
product
100
AcDbPolyline
 90
       23
 70
   128
 43
0.0
 10
138.8651870079904
 20
91.87312006871129
 10
138.8651609016253
 20
91.79744446292252
 10
138.8645953614918
 20
91.70683953626499
 10
138.8631234318291
 20
91.62748791960815
 10
138.8605711679797
 20
91.55204932441474
 10
138.8572178200512
 20
91.48909719830966
 10
138.853342051491
 20
91.4384754897625
 10
138.8484452013932
 20
91.38897899488361
 10
138.8437017628565
 20
91.34858863480998
 10
138.8402310829501
 20
91.32034448108869
 10
138.8378020176775
 20
91.29666336798836
 10
138.836381127425
 20
91.27493935227938
 10
138.8360000918269
 20
91.24692399591493
 10
138.8380407882525
 20
91.21222306344987
 10
138.8448079100782
 20
91.16867881981024
 10
138.8593039826183
 20
91.11729445340655
 10
138.8831144542243
 20
91.06336867636185
 10
138.9166420669105
 20
91.01089664252334
 10
138.9595213315656
 20
90.96285389085064
 10
139.0106346611001
 20
90.9217255126356
 10
139.0684103936698
 20
90.88936300649029
 10
139.1360170793383
 20
90.86575698585546
 10
139.2003610560311
 20
90.85537193249129
  0
LWPOLYLINE
  5
1803A
330
1F
100
AcDbEntity
  8
product
100
AcDbPolyline
 90
       10
 70
   128
 43
0.0
 10
142.5082344096478
 20
125.4642727141826
 10
142.5047019272847
 20
125.4585574735389
 10
142.4953734226005
 20
125.4327503049989
 10
142.4871819134796
 20
125.3918941369726
 10
142.4814593922949
 20
125.337457965824
 10
142.4787479923673
 20
125.2707019369953
 10
142.479603814564
 20
125.192872116092
 10
142.4842877735795
 20
125.1066554054083
 10
142.4930123548757
 20
125.0145052166016
 10
142.5057991373962
 20
124.919154211438
  0
LINE
  5
1803B
330
1F
100
AcDbEntity
  8
product
100
AcDbLine
 10
142.5082344096478
 20
125.4642727141826
 30
0.0
 11
142.5089705946915
 21
125.4660057074963
 31
0.0
  0
ELLIPSE
  5
1803C
330
1F
100
AcDbEntity
  8
product
100
AcDbEllipse
 10
141.1992069791448
 20
124.8780825188929
 30
0.0
 11
-1.30976361554671
 21
0.0000000000000004
 31
0.0
210
0.0
220
0.0
230
1.0
 40
0.4508837885650453
 41
3.141592653478955
 42
3.211196884765676
  0
LINE
  5
1803D
330
1F
100
AcDbEntity
  8
product
100
AcDbLine
 10
142.5089705942563
 20
125.4660057074963
 30
0.0
 11
142.5089705942554
 21
124.8780821525726
 31
0.0
  0
ELLIPSE
  5
1803E
330
1F
100
AcDbEntity
  8
product
100
AcDbEllipse
 10
141.1992069791447
 20
96.20251480884908
 30
0.0
 11
-1.309763615546685
 21
0.0000000000000253
 31
0.0
210
0.0
220
0.0
230
1.0
 40
0.4508837885650538
 41
3.071988422414364
 42
3.141592653590286
  0
LINE
  5
1803F
330
1F
100
AcDbEntity
  8
product
100
AcDbLine
 10
142.5089705942554
 20
124.8780821525726
 30
0.0
 11
142.5089705946915
 21
96.20251517516944
 31
0.0
  0
LWPOLYLINE
  5
18040
330
1F
100
AcDbEntity
  8
product
100
AcDbPolyline
 90
       10
 70
   128
 43
0.0
 10
142.5057991373962
 20
96.16144311630399
 10
142.501888584316
 20
96.13518069968963
 10
142.490261811442
 20
96.04080589658215
 10
142.482651315609
 20
95.95033355505952
 10
142.4789975817757
 20
95.86533709694585
 10
142.4791782546884
 20
95.78954885245812
 10
142.4829850700869
 20
95.72443899127973
 10
142.4897749994616
 20
95.67293494625882
 10
142.4987415011923
 20
95.63666997852818
 10
142.5082344096478
 20
95.61632461355943
  0
LINE
  5
18041
330
1F
100
AcDbEntity
  8
product
100
AcDbLine
 10
142.5089705946915
 20
95.61459162024574
 30
0.0
 11
142.5082344096478
 21
95.61632461355943
 31
0.0
  0
LINE
  5
18042
330
1F
100
AcDbEntity
  8
product
100
AcDbLine
 10
142.5089705946915
 20
96.20251517516944
 30
0.0
 11
142.5089705943493
 21
95.61459162024574
 31
0.0
  0
ARC
  5
18043
330
1F
100
AcDbEntity
  8
product
100
AcDbCircle
 10
177.4789314565354
 20
540.8174161974123
 30
0.0
 40
451.5842590563748
100
AcDbArc
 50
265.1369010735324
 51
265.5586602476732
  0
LINE
  5
18044
330
1F
100
AcDbEntity
  8
product
100
AcDbLine
 10
142.5089705946915
 20
90.58920199397574
 30
0.0
 11
142.5089705946915
 21
95.61459162024574
 31
0.0
  0
LINE
  5
18045
330
1F
100
AcDbEntity
  8
product
100
AcDbLine
 10
164.2589705946915
 20
94.79029866387124
 30
0.0
 11
164.2589705946915
 21
126.2902986638712
 31
0.0
  0
ARC
  5
18046
330
1F
100
AcDbEntity
  8
product
100
AcDbCircle
 10
177.4749246886111
 20
-319.6862132429024
 30
0.0
 40
451.5334951136018
100
AcDbArc
 50
94.44133011902557
 51
94.86311441708705
  0
LINE
  5
18047
330
1F
100
AcDbEntity
  8
product
100
AcDbLine
 10
142.5089705946915
 20
125.4660057074963
 30
0.0
 11
142.5089705946915
 21
130.4913953337667
 31
0.0
  0
LWPOLYLINE
  5
18048
330
1F
100
AcDbEntity
  8
product
100
AcDbPolyline
 90
        5
 70
   128
 43
0.0
 10
139.2027915879535
 20
130.2244908970693
 10
139.1989172860432
 20
130.2229925677117
 10
139.1957933221314
 20
130.2217840483393
 10
139.1957933221314
 20
130.2217840483393
 10
139.1957933221314
 20
130.2217840483393
  0
LINE
  5
18049
330
1F
100
AcDbEntity
  8
product
100
AcDbLine
 10
142.508970594564
 20
130.4867630672789
 30
0.0
 11
142.5089705945629
 21
130.4913953337667
 31
0.0
  0
LINE
  5
1804A
330
1F
100
AcDbEntity
  8
product
100
AcDbLine
 10
139.2011413136843
 20
90.86028110244695
 30
0.0
 11
139.2097150546398
 21
90.86263360860369
 31
0.0
  0
LINE
  5
1804B
330
1F
100
AcDbEntity
  8
product
100
AcDbLine
 10
142.5089705946873
 20
90.58920199397574
 30
0.0
 11
142.5089705946884
 21
90.59386007349839
 31
0.0
  0
LWPOLYLINE
  5
1804C
330
1F
100
AcDbEntity
  8
product
100
AcDbPolyline
 90
        4
 70
   128
 43
0.0
 10
142.5057991373962
 20
124.919154211438
 10
142.3142962369196
 20
124.8701493375464
 10
142.0052438437859
 20
124.7910628911599
 10
141.6587896827206
 20
124.7024009820565
  0
LWPOLYLINE
  5
1804D
330
1F
100
AcDbEntity
  8
product
100
AcDbPolyline
 90
       10
 70
   128
 43
0.0
 10
141.7151973977604
 20
125.2608026380197
 10
141.6893532696474
 20
125.2348816574612
 10
141.6681353214256
 20
125.193914024056
 10
141.6518302831161
 20
125.1377730192684
 10
141.6411061403357
 20
125.0687395767485
 10
141.6363626284666
 20
124.9915996678754
 10
141.6371983988116
 20
124.9063532926488
 10
141.6434126670239
 20
124.8183766022963
 10
141.6548268684994
 20
124.7272378151393
 10
141.6587896827206
 20
124.7024009820565
  0
LWPOLYLINE
  5
1804E
330
1F
100
AcDbEntity
  8
product
100
AcDbPolyline
 90
        5
 70
   128
 43
0.0
 10
141.7151973977604
 20
125.2608026380197
 10
141.8325500554259
 20
125.2909158901488
 10
142.1707592984039
 20
125.3776946210067
 10
142.3884949997692
 20
125.4335552023673
 10
142.5082344096478
 20
125.4642727141826
  0
LWPOLYLINE
  5
1804F
330
1F
100
AcDbEntity
  8
product
100
AcDbPolyline
 90
        4
 70
   128
 43
0.0
 10
141.6587896827206
 20
96.37819634568554
 10
142.0052438437859
 20
96.28953443658215
 10
142.3158168593533
 20
96.21005844802894
 10
142.5057991373962
 20
96.16144311630399
  0
LWPOLYLINE
  5
18050
330
1F
100
AcDbEntity
  8
product
100
AcDbPolyline
 90
        3
 70
   128
 43
0.0
 10
141.6658806408053
 20
96.56552036836901
 10
141.6658806408053
 20
96.56484805613573
 10
141.6587896827206
 20
96.37819634568554
  0
LINE
  5
18051
330
1F
100
AcDbEntity
  8
product
100
AcDbLine
 10
141.6658806408053
 20
124.5157492716065
 30
0.0
 11
141.6658806408053
 21
96.56552036836901
 31
0.0
  0
LINE
  5
18052
330
1F
100
AcDbEntity
  8
product
100
AcDbLine
 10
141.6587896827206
 20
124.7024009820565
 30
0.0
 11
141.6658806408053
 21
124.5157492716065
 31
0.0
  0
LWPOLYLINE
  5
18053
330
1F
100
AcDbEntity
  8
product
100
AcDbPolyline
 90
        3
 70
   128
 43
0.0
 10
142.5082344096478
 20
95.61632461355943
 10
141.9835122748309
 20
95.75094545840796
 10
141.7151973977604
 20
95.81979468972248
  0
LWPOLYLINE
  5
18054
330
1F
100
AcDbEntity
  8
product
100
AcDbPolyline
 90
       10
 70
   128
 43
0.0
 10
141.6587896827206
 20
96.37819634568554
 10
141.6458136459541
 20
96.28505587498548
 10
141.638184720751
 20
96.1945811868235
 10
141.6360514787277
 20
96.10877279142268
 10
141.6393870801945
 20
96.03035865726942
 10
141.6478602823113
 20
95.96310162089515
 10
141.6612439743685
 20
95.90651358127173
 10
141.6794724504582
 20
95.86184177732425
 10
141.7020737426994
 20
95.8304296601997
 10
141.7151973977604
 20
95.81979468972248
  0
LWPOLYLINE
  5
18055
330
1F
100
AcDbEntity
  8
product
100
AcDbPolyline
 90
        3
 70
   128
 43
0.0
 10
139.1994353067256
 20
90.86299499109568
 10
139.1994165336091
 20
90.862968004741
 10
139.1957868688725
 20
90.85880741280439
  0
LWPOLYLINE
  5
18056
330
1F
100
AcDbEntity
  8
product
100
AcDbPolyline
 90
        8
 70
   128
 43
0.0
 10
141.7398306598617
 20
95.753775505715
 10
141.4139159381897
 20
94.9519780481477
 10
141.0504235239517
 20
94.13849901886022
 10
140.6761371544065
 20
93.36905585419994
 10
140.2939530227636
 20
92.6444252918608
 10
139.9330297388467
 20
92.01096519631246
 10
139.5679360364404
 20
91.41708235023124
 10
139.1994358933855
 20
90.86299499109568
  0
LWPOLYLINE
  5
18057
330
1F
100
AcDbEntity
  8
product
100
AcDbPolyline
 90
        3
 70
   128
 43
0.0
 10
141.7151973977604
 20
95.81979468972248
 10
141.7397368676119
 20
95.78326924500096
 10
141.7398323465088
 20
95.753775505715
  0
LWPOLYLINE
  5
18058
330
1F
100
AcDbEntity
  8
product
100
AcDbPolyline
 90
        4
 70
   128
 43
0.0
 10
141.7398007402073
 20
125.3269039544117
 10
141.7398323465088
 20
125.326821822027
 10
141.739826333245
 20
125.2975873864124
 10
141.7151973977604
 20
125.2608026380197
  0
LWPOLYLINE
  5
18059
330
1F
100
AcDbEntity
  8
product
100
AcDbPolyline
 90
        8
 70
   128
 43
0.0
 10
139.1994171202691
 20
130.2176293230017
 10
139.5894523745485
 20
129.6297855538229
 10
139.9755922071615
 20
128.9973673662385
 10
140.3583565454353
 20
128.3181020398361
 10
140.7349998210866
 20
127.5945720514497
 10
141.0812258081211
 20
126.87604979188
 10
141.4176741547744
 20
126.1198111680131
 10
141.7397991268926
 20
125.3269027810919
  0
LINE
  5
1805A
330
1F
100
AcDbEntity
  8
product
100
AcDbLine
 10
139.19585345477
 20
130.22172655567
 30
0.0
 11
139.1994165336091
 21
130.2176293230017
 31
0.0
  0
LINE
  5
1805B
330
1F
100
AcDbEntity
  8
product
100
AcDbLine
 10
141.6658806408053
 20
124.5157492716065
 30
0.0
 11
141.4340771652854
 21
124.5157492716065
 31
0.0
  0
LINE
  5
1805C
330
1F
100
AcDbEntity
  8
product
100
AcDbLine
 10
141.6658806408053
 20
96.56552036836901
 30
0.0
 11
141.4340771652854
 21
96.56552036836901
 31
0.0
  0
ARC
  5
1805D
330
1F
100
AcDbEntity
  8
product
100
AcDbCircle
 10
141.716895729482
 20
123.3833977725454
 30
0.0
 40
1.320282461964453
100
AcDbArc
 50
92.52242002226926
 51
102.6343899154747
  0
LWPOLYLINE
  5
1805E
330
1F
100
AcDbEntity
  8
product
100
AcDbPolyline
 90
       10
 70
   128
 43
0.0
 10
141.6587896827206
 20
96.37819634568554
 10
141.6093580137594
 20
96.38300226350056
 10
141.5642611013895
 20
96.38770844913405
 10
141.524424328254
 20
96.39222103700435
 10
141.4906651315765
 20
96.39644381488928
 10
141.4636762100215
 20
96.40029347708413
 10
141.4440114438572
 20
96.4036890645249
 10
141.4320741617576
 20
96.40656252466364
 10
141.4281094408918
 20
96.40885284487231
 10
141.4281119341963
 20
96.4088892177855
  0
ARC
  5
1805F
330
1F
100
AcDbEntity
  8
product
100
AcDbCircle
 10
141.819025367577
 20
124.8944109574501
 30
0.0
 40
0.3808190001922305
100
AcDbArc
 50
105.8216538799137
 51
136.4225193255836
  0
ARC
  5
18060
330
1F
100
AcDbEntity
  8
product
100
AcDbCircle
 10
141.8190123376466
 20
96.18615813325927
 30
0.0
 40
0.3807882804195277
100
AcDbArc
 50
223.0499807652673
 51
254.1790740208011
  0
LINE
  5
18061
330
1F
100
AcDbEntity
  8
product
100
AcDbLine
 10
142.5174010852183
 20
120.9007123128216
 30
0.0
 11
142.5174010852183
 21
100.1798017092159
 31
0.0
  0
ARC
  5
18062
330
1F
100
AcDbEntity
  8
product
100
AcDbCircle
 10
141.8479623927154
 20
124.9558999507668
 30
0.0
 40
0.3864484340574143
100
AcDbArc
 50
106.2536726681592
 51
164.3676792908877
  0
ARC
  5
18063
330
1F
100
AcDbEntity
  8
product
100
AcDbCircle
 10
141.8438154880373
 20
96.12050995365907
 30
0.0
 40
0.3812341734569439
100
AcDbArc
 50
195.5008213127732
 51
254.1690967597808
  0
ARC
  5
18064
330
1F
100
AcDbEntity
  8
product
100
AcDbCircle
 10
139.2369189729563
 20
91.25112121557448
 30
0.0
 40
0.3899432220445224
100
AcDbArc
 50
144.4214162464201
 51
264.4828316556874
  0
ARC
  5
18065
330
1F
100
AcDbEntity
  8
product
100
AcDbCircle
 10
139.2369021176525
 20
129.829499272586
 30
0.0
 40
0.3899360268652536
100
AcDbArc
 50
95.516514339539
 51
215.5519444062154
  0
ARC
  5
18066
330
1F
100
AcDbEntity
  8
product
100
AcDbCircle
 10
97.39422477515667
 20
124.6508317121635
 30
0.0
 40
52.84433934099872
100
AcDbArc
 50
321.8062051246639
 51
324.3900081332864
  0
LWPOLYLINE
  5
18067
330
1F
100
AcDbEntity
  8
product
100
AcDbPolyline
 90
        9
 70
   128
 43
0.0
 10
138.9258127343035
 20
91.97589701475671
 10
138.9258127343035
 20
91.9758946681169
 10
138.9224335733399
 20
91.86804076738793
 10
138.9187493492338
 20
91.74320775613605
 10
138.9150548585794
 20
91.63751863039932
 10
138.9124527286395
 20
91.56272301444451
 10
138.9128663238616
 20
91.51445381205453
 10
138.9195853395762
 20
91.49546832470981
 10
138.936440958192
 20
91.50580292532358
  0
ARC
  5
18068
330
1F
100
AcDbEntity
  8
product
100
AcDbCircle
 10
103.1448331496951
 20
100.7477292411526
 30
0.0
 40
45.65518899928252
100
AcDbArc
 50
35.40649969435157
 51
38.39732495213415
  0
LWPOLYLINE
  5
18069
330
1F
100
AcDbEntity
  8
product
100
AcDbPolyline
 90
        9
 70
   128
 43
0.0
 10
138.9247453066346
 20
129.5845259166664
 10
138.9145377178868
 20
129.5770941091856
 10
138.9121130525634
 20
129.5366603362803
 10
138.9140648700158
 20
129.4694068198652
 10
138.9176772282856
 20
129.3701439665582
 10
138.9213505991838
 20
129.2503128175245
 10
138.9258127343035
 20
129.1047026596255
 10
138.9258127343035
 20
129.1047003129859
 10
138.9258127343035
 20
129.1047003129859
  0
LWPOLYLINE
  5
1806A
330
1F
100
AcDbEntity
  8
product
100
AcDbPolyline
 90
       33
 70
   128
 43
0.0
 10
138.9258133209634
 20
129.1042204251963
 10
138.9259473727481
 20
128.1223840874535
 10
138.9260764379239
 20
127.124492041854
 10
138.9261996365006
 20
126.1118830462664
 10
138.9263166751486
 20
125.085894685238
 10
138.9264395803954
 20
123.9266289305082
 10
138.926553392414
 20
122.7515972779075
 10
138.9266581112043
 20
121.5627685580251
 10
138.9267528567765
 20
120.3621086681506
 10
138.9268376291304
 20
119.1515840922337
 10
138.9269133082563
 20
117.8959635572693
 10
138.9269778408442
 20
116.6306279345346
 10
138.9270303469043
 20
115.3578065316093
 10
138.9270711197666
 20
114.0797295360638
 10
138.9270992794413
 20
112.798626988803
 10
138.9271145325983
 20
111.5511028003089
 10
138.9271180525577
 20
110.3014296766395
 10
138.9271098393194
 20
109.0516754472402
 10
138.927090186213
 20
107.8039080882221
 10
138.927058506579
 20
106.5601952823653
 10
138.9270139204274
 20
105.2850017201766
 10
138.9269570144181
 20
104.014848446429
 10
138.9268886685409
 20
102.7519492222153
 10
138.9268085894659
 20
101.4985157553188
 10
138.9267176571832
 20
100.2567609268434
 10
138.9266299515296
 20
99.18744069305525
 10
138.9265346192976
 20
98.12767714886753
 10
138.9264319538169
 20
97.07886537149752
 10
138.9263219550877
 20
96.04240043816197
 10
138.9262040364498
 20
95.00403238014532
 10
138.9260793712233
 20
93.9793147244376
 10
138.925949132728
 20
92.96963433501822
 10
138.9258133209634
 20
91.97637690254614
  0
LWPOLYLINE
  5
1806B
330
1F
100
AcDbEntity
  8
product
100
AcDbPolyline
 90
        3
 70
   128
 43
0.0
 10
138.8679047099286
 20
129.2055776543089
 10
138.8785000808634
 20
129.1580887095719
 10
138.9258124409735
 20
129.1044891154257
  0
LWPOLYLINE
  5
1806C
330
1F
100
AcDbEntity
  8
product
100
AcDbPolyline
 90
        3
 70
   128
 43
0.0
 10
138.8679592692983
 20
91.87557934696828
 10
138.8784997875334
 20
91.92279960147574
 10
138.9258133209634
 20
91.9763628227089
  0
ARC
  5
1806D
330
1F
100
AcDbEntity
  8
product
100
AcDbCircle
 10
139.2366749962755
 20
91.25067636527036
 30
0.0
 40
0.3939920767279182
100
AcDbArc
 50
139.6420947295858
 51
264.0442446631376
  0
ARC
  5
1806E
330
1F
100
AcDbEntity
  8
product
100
AcDbCircle
 10
139.234771247661
 20
129.8324392435903
 30
0.0
 40
0.3912910114781748
100
AcDbArc
 50
95.71692311874947
 51
216.8896369027394
  0
LINE
  5
1806F
330
1F
100
AcDbEntity
  8
product
100
AcDbLine
 10
142.5089705946915
 20
130.4913953337667
 30
0.0
 11
164.2589705946915
 21
126.2902986638712
 31
0.0
  0
LINE
  5
18070
330
1F
100
AcDbEntity
  8
product
100
AcDbLine
 10
142.5089705946915
 20
90.58920199397574
 30
0.0
 11
164.2589705946915
 21
94.79029866387124
 31
0.0
  0
LINE
  5
18071
330
1F
100
AcDbEntity
  8
product
100
AcDbLine
 10
142.5089705946915
 20
125.4660057074963
 30
0.0
 11
164.2589705946915
 21
122.0402986638712
 31
0.0
  0
LINE
  5
18072
330
1F
100
AcDbEntity
  8
product
100
AcDbLine
 10
142.5089705946915
 20
95.61459162024574
 30
0.0
 11
164.2589705946915
 21
99.04029866387125
 31
0.0
  0
LINE
  5
184B1
330
1F
100
AcDbEntity
  8
product
100
AcDbLine
 10
70.39185449012558
 20
124.7157107969942
 30
0.0
 11
70.28098221449539
 21
122.1581091178469
 31
0.0
  0
LINE
  5
184B2
330
1F
100
AcDbEntity
  8
product
100
AcDbLine
 10
80.61749507903796
 20
124.2549782501792
 30
0.0
 11
80.50662280340782
 21
121.6973765710318
 31
0.0
  0
LINE
  5
184B4
330
1F
100
AcDbEntity
  8
product
100
AcDbLine
 10
80.61749507903796
 20
124.2549782501792
 30
0.0
 11
70.39185449012558
 21
124.7157107969942
 31
0.0
  0
LINE
  5
184B5
330
1F
100
AcDbEntity
  8
product
100
AcDbLine
 10
80.50662280340782
 20
121.6973765710318
 30
0.0
 11
70.28098221449539
 21
122.1581091178469
 31
0.0
  0
LWPOLYLINE
  5
184B6
330
1F
100
AcDbEntity
  8
product
100
AcDbPolyline
 90
        2
 70
   128
 43
0.0
 10
80.52676040244779
 20
122.1619107102099
 10
100.0059545598649
 20
121.3637958165752
  0
LINE
  5
1851B
330
1F
100
AcDbEntity
  8
product
100
AcDbLine
 10
70.39185449012558
 20
96.36488653074826
 30
0.0
 11
70.28098221449539
 21
98.92248820989561
 31
0.0
  0
LINE
  5
1851C
330
1F
100
AcDbEntity
  8
product
100
AcDbLine
 10
80.61749507903796
 20
96.82561907756328
 30
0.0
 11
80.50662280340782
 21
99.38322075671067
 31
0.0
  0
LINE
  5
1851D
330
1F
100
AcDbEntity
  8
product
100
AcDbLine
 10
80.61749507903796
 20
96.82561907756328
 30
0.0
 11
70.39185449012558
 21
96.36488653074826
 31
0.0
  0
LINE
  5
1851E
330
1F
100
AcDbEntity
  8
product
100
AcDbLine
 10
80.50662280340782
 20
99.38322075671067
 30
0.0
 11
70.28098221449539
 21
98.92248820989561
 31
0.0
  0
LWPOLYLINE
  5
1851F
330
1F
100
AcDbEntity
  8
product
100
AcDbPolyline
 90
        2
 70
   128
 43
0.0
 10
70.29876225212888
 20
98.5123382977718
 10
60.2623518146886
 20
98.11483751052548
  0
LWPOLYLINE
  5
18836
330
1F
100
AcDbEntity
  8
product
100
AcDbPolyline
 90
        2
 70
   128
 43
0.0
 10
40.29595499999044
 20
70.00138438227432
 10
39.99886126836037
 20
70.00132738040536
  0
LINE
  5
18838
330
1F
100
AcDbEntity
  8
product
100
AcDbLine
 10
40.14253809679224
 20
69.4984585748519
 30
0.0
 11
41.03964033042529
 21
66.35860134380161
 31
0.0
  0
VIEWPORT
  5
18E60
102
{ACAD_XDICTIONARY
360
18FBC
102
}
330
18E59
100
AcDbEntity
 67
     1
  8
0
100
AcDbViewport
 10
5.375000360443836
 20
4.124999881729365
 30
0.0
 40
22.27013900081097
 41
8.992999745766949
 68
     1
 69
     1
 12
5.375000360443836
 22
4.124999881729365
 13
0.0
 23
0.0
 14
0.5
 24
0.5
 15
0.5
 25
0.5
 16
0.0
 26
0.0
 36
1.0
 17
0.0
 27
0.0
 37
0.0
 42
50.0
 43
0.0
 44
0.0
 45
8.992999745766949
 50
0.0
 51
0.0
 72
  1000
 90
   557088
  1

281
     0
 71
     1
 74
     0
110
0.0
120
0.0
130
0.0
111
1.0
121
0.0
131
0.0
112
0.0
122
1.0
132
0.0
 79
     0
146
0.0
  0
VIEWPORT
  5
18E62
102
{ACAD_XDICTIONARY
360
18FBE
102
}
330
18E59
100
AcDbEntity
 67
     1
  8
product
100
AcDbViewport
 10
5.375000121086602
 20
4.124999820716737
 30
0.0
 40
8.600000193738562
 41
6.599999713146781
 68
     2
 69
     2
 12
102.1289159315259
 22
87.5499988401002
 13
0.0
 23
0.0
 14
0.5
 24
0.5
 15
0.5
 25
0.5
 16
0.0
 26
0.0
 36
1.0
 17
0.0
 27
0.0
 37
0.0
 42
50.0
 43
0.0
 44
0.0
 45
96.59288581180625
 50
0.0
 51
0.0
 72
  1000
 90
   819296
  1

281
     0
 71
     1
 74
     0
110
0.0
120
0.0
130
0.0
111
1.0
121
0.0
131
0.0
112
0.0
122
1.0
132
0.0
 79
     0
146
0.0
  0
ENDSEC
  0
SECTION
  2
OBJECTS
  0
DICTIONARY
  5
C
330
0
100
AcDbDictionary
281
     1
  3
ACAD_2007HEADERVARS_RT
350
18F93
  3
ACAD_CIP_PREVIOUS_PRODUCT_INFO
350
18F82
  3
ACAD_COLOR
350
73
  3
ACAD_GROUP
350
D
  3
ACAD_LAYOUT
350
1A
  3
ACAD_MATERIAL
350
72
  3
ACAD_MLEADERSTYLE
350
18F7A
  3
ACAD_MLINESTYLE
350
17
  3
ACAD_PLOTSETTINGS
350
19
  3
ACAD_PLOTSTYLENAME
350
E
  3
ACAD_SCALELIST
350
18F68
  3
ACAD_TABLESTYLE
350
86
  3
ACAD_VISUALSTYLE
350
D2C5
  3
ACDB_RECOMPOSE_DATA
350
18F91
  3
AcDbVariableDictionary
350
66
  3
ASE_INDEX_DICTIONARY
350
CF30
  3
DWGPROPS
350
18F92
  0
DICTIONARY
  5
10D69
330
8
100
AcDbDictionary
280
     1
281
     1
  0
DICTIONARY
  5
97
330
2
100
AcDbDictionary
280
     1
281
     1
  3
ACAD_LAYERFILTERS
360
18DF4
  3
ACAD_LAYERSTATES
360
98
  3
ACLYDICTIONARY
360
18DF3
  0
DICTIONARY
  5
18F83
330
10
100
AcDbDictionary
280
     1
281
     1
  3
ADSK_XREC_LAYER_RECONCILED
360
18F84
  0
DICTIONARY
  5
18F85
330
152
100
AcDbDictionary
280
     1
281
     1
  3
ADSK_XREC_LAYER_RECONCILED
360
18F86
  0
DICTIONARY
  5
C9C7
330
1F
100
AcDbDictionary
280
     1
281
     1
  3
ACAD_SORTENTS
360
C9C8
  0
DICTIONARY
  5
18FBC
330
18E60
100
AcDbDictionary
280
     1
281
     1
  3
ACAD_XREC_ROUNDTRIP
360
18FBD
  0
DICTIONARY
  5
18FBE
330
18E62
100
AcDbDictionary
280
     1
281
     1
  3
ACAD_XREC_ROUNDTRIP
360
18FBF
  0
DICTIONARY
  5
18F93
102
{ACAD_REACTORS
330
C
102
}
330
C
100
AcDbDictionary
281
     1
  3
DIMFXL
350
18F94
  3
DIMLTEX1
350
18F96
  3
DIMLTEX2
350
18F97
  3
DIMLTYPE
350
18F95
  0
XRECORD
  5
18F82
102
{ACAD_REACTORS
330
C
102
}
330
C
100
AcDbXrecord
280
     1
300
ACD
300
2012
300
85730ACD_2012_0F
  0
DICTIONARY
  5
73
102
{ACAD_REACTORS
330
C
102
}
330
C
100
AcDbDictionary
281
     1
  0
DICTIONARY
  5
D
102
{ACAD_REACTORS
330
C
102
}
330
C
100
AcDbDictionary
281
     1
  0
DICTIONARY
  5
1A
102
{ACAD_REACTORS
330
C
102
}
330
C
100
AcDbDictionary
281
     1
  3
Layout1
350
18E5A
  3
Model
350
22
  0
DICTIONARY
  5
72
102
{ACAD_REACTORS
330
C
102
}
330
C
100
AcDbDictionary
281
     1
  3
ByBlock
350
D2C4
  3
ByLayer
350
D2C3
  3
Global
350
43D6
  0
DICTIONARY
  5
18F7A
102
{ACAD_REACTORS
330
C
102
}
330
C
100
AcDbDictionary
281
     1
  3
Standard
350
18F7B
  0
DICTIONARY
  5
17
102
{ACAD_REACTORS
330
C
102
}
330
C
100
AcDbDictionary
281
     1
  3
Standard
350
18
  0
DICTIONARY
  5
19
102
{ACAD_REACTORS
330
C
102
}
330
C
100
AcDbDictionary
281
     1
  3
Setup1
350
A580
  0
ACDBDICTIONARYWDFLT
  5
E
102
{ACAD_REACTORS
330
C
102
}
330
C
100
AcDbDictionary
281
     1
  3
Normal
350
F
100
AcDbDictionaryWithDefault
340
F
  0
DICTIONARY
  5
18F68
102
{ACAD_REACTORS
330
C
102
}
330
C
100
AcDbDictionary
281
     1
  3
A0
350
18F69
  3
A1
350
18F6A
  3
A2
350
18F6B
  3
A3
350
18F6C
  3
A4
350
18F6D
  3
A5
350
18F6E
  3
A6
350
18F6F
  3
A7
350
18F70
  3
A8
350
18F71
  3
A9
350
18F72
  3
B0
350
18F73
  3
B1
350
18F74
  3
B2
350
18F75
  3
B3
350
18F76
  3
B4
350
18F77
  3
B5
350
18F78
  3
B6
350
18F79
  0
DICTIONARY
  5
86
102
{ACAD_REACTORS
330
C
102
}
330
C
100
AcDbDictionary
281
     1
  3
Standard
350
87
  0
DICTIONARY
  5
D2C5
102
{ACAD_REACTORS
330
C
102
}
330
C
100
AcDbDictionary
281
     1
  3
2dWireframe
350
D2CB
  3
Basic
350
D2CA
  3
Brighten
350
D2D1
  3
ColorChange
350
D2D5
  3
Conceptual
350
18F5E
  3
Dim
350
D2D0
  3
EdgeColorOff
350
18F67
  3
Facepattern
350
D2D4
  3
Flat
350
D2C6
  3
FlatWithEdges
350
D2C7
  3
Gouraud
350
D2C8
  3
GouraudWithEdges
350
D2C9
  3
Hidden
350
18F5D
  3
JitterOff
350
18F65
  3
Linepattern
350
D2D3
  3
OverhangOff
350
18F66
  3
Realistic
350
18F5F
  3
Shaded
350
18F64
  3
Shaded with edges
350
18F63
  3
Shades of Gray
350
18F60
  3
Sketchy
350
18F61
  3
Thicken
350
D2D2
  3
Wireframe
350
18F5C
  3
X-Ray
350
18F62
  0
XRECORD
  5
18F91
102
{ACAD_REACTORS
330
C
102
}
330
C
100
AcDbXrecord
280
     1
 90
        1
330
87
  0
DICTIONARY
  5
66
102
{ACAD_REACTORS
330
C
102
}
330
C
100
AcDbDictionary
281
     1
  3
CANNOSCALE
350
18F88
  3
CMLEADERSTYLE
350
18F87
  3
CTABLESTYLE
350
36F
  3
DIMASSOC
350
67
  3
HIDETEXT
350
6B
  3
INDEXCTL
350
18F8A
  3
SORTENTS
350
18F89
  3
XCLIPFRAME
350
18F8B
  0
DICTIONARY
  5
CF30
102
{ACAD_REACTORS
330
C
102
}
330
C
100
AcDbDictionary
281
     1
  3
ASEBlockHierarchyIndexRecord
350
CF31
1001
DCO15
1040
1662369317.164
  0
XRECORD
  5
18F92
102
{ACAD_REACTORS
330
C
102
}
330
C
100
AcDbXrecord
280
     1
  1
DWGPROPS COOKIE
  2

  3

  4

  6

  7

  8
jgayle
  9

300
=
301
=
302
=
303
=
304
=
305
=
306
=
307
=
308
=
309
=
 40
0.2417062847222222
 41
2455044.600454803
 42
2456127.574911146
  1

 90
        0
  0
DICTIONARY
  5
18DF4
102
{ACAD_REACTORS
330
97
102
}
330
97
100
AcDbDictionary
281
     1
  0
DICTIONARY
  5
98
102
{ACAD_REACTORS
330
97
102
}
330
97
100
AcDbDictionary
281
     1
  0
DICTIONARY
  5
18DF3
102
{ACAD_REACTORS
330
97
102
}
330
97
100
AcDbDictionary
281
     1
1001
ACAD
1000
<All
  0
XRECORD
  5
18F84
102
{ACAD_REACTORS
330
18F83
102
}
330
18F83
100
AcDbXrecord
280
     1
290
     1
  0
XRECORD
  5
18F86
102
{ACAD_REACTORS
330
18F85
102
}
330
18F85
100
AcDbXrecord
280
     1
290
     1
  0
SORTENTSTABLE
  5
C9C8
102
{ACAD_REACTORS
330
C9C7
102
}
330
C9C7
100
AcDbSortentsTable
330
1F
331
17EFE
  5
17F01
331
17EFA
  5
17EFD
331
17F74
  5
17F78
331
17F35
  5
17F39
331
17FAF
  5
17FB4
331
17FEE
  5
17FF5
331
17F70
  5
17F74
331
17EF6
  5
17EF9
331
17F31
  5
17F35
331
17EF2
  5
17EF5
331
17FAB
  5
17FB0
331
1806C
  5
184AD
331
17FEA
  5
17FF1
331
17F6C
  5
17F70
331
17FE6
  5
17FED
331
1802D
  5
18034
331
17F68
  5
17F6C
331
18068
  5
1806F
331
18064
  5
1806B
331
17FE2
  5
17FE9
331
18060
  5
18067
331
17FA7
  5
17FAC
331
17EEE
  5
17EF1
331
17F29
  5
17F31
331
17F64
  5
17F68
331
17FA3
  5
17FA8
331
17FDE
  5
17FE5
331
17F60
  5
17F64
331
17F9F
  5
17FA3
331
17EE6
  5
17EEE
331
17F25
  5
17F28
331
17EE2
  5
17EE4
331
17F21
  5
17F24
331
1805C
  5
18063
331
17FDA
  5
17FE1
331
18019
  5
18031
331
17F5C
  5
17F60
331
17F9B
  5
17F9F
331
17FD6
  5
17FDD
331
18015
  5
1802F
331
17F58
  5
17F5C
331
18058
  5
1805F
331
18054
  5
1805B
331
17FD2
  5
17FD9
331
18011
  5
1802B
331
18050
  5
18057
331
17F97
  5
17F9B
331
17F1D
  5
17F20
331
17F19
  5
17F1C
331
17EDA
  5
17EDA
331
17F93
  5
17F97
331
17F54
  5
17F58
331
17F8F
  5
17F93
331
17FCE
  5
17FD5
331
17F50
  5
17F54
331
17F15
  5
17F18
331
17F11
  5
17F14
331
17F8B
  5
17F8F
331
18009
  5
18010
331
1804C
  5
18053
331
17FCA
  5
17FD1
331
17F4C
  5
17F50
331
18005
  5
1800D
331
17FC6
  5
17FCC
331
17F48
  5
17F4C
331
1851F
  5
17FC9
331
18048
  5
1804F
331
18001
  5
18008
331
1851B
  5
1851F
331
18044
  5
1804B
331
17FC2
  5
17FC7
331
18040
  5
18047
331
17F87
  5
17F8B
331
17F0D
  5
17F10
331
17F09
  5
17F0C
331
17F83
  5
17F87
331
17F44
  5
17F48
331
17F7F
  5
17F83
331
17FFD
  5
18004
331
17FBE
  5
17FC3
331
17F40
  5
17F44
331
17F05
  5
17F08
331
17F01
  5
17F04
331
17F7B
  5
17F7F
331
17FF9
  5
18000
331
1803C
  5
18043
331
17FBA
  5
17FBF
331
17F3C
  5
17F40
331
17FF5
  5
17FFC
331
17FB6
  5
17FBB
331
17F38
  5
17F3C
331
18038
  5
1803F
331
17FF1
  5
17FF8
331
18034
  5
1803B
331
17FB2
  5
17FB7
331
18030
  5
18037
331
17F77
  5
17F7B
331
17EFD
  5
17F00
331
17EF9
  5
17EFC
331
17F73
  5
17F77
331
17FAE
  5
17FB3
331
17FED
  5
17FF4
331
17F6F
  5
17F73
331
1806F
  5
184B1
331
17EF5
  5
17EF8
331
17F34
  5
17F38
331
17EF1
  5
17EF4
331
17F30
  5
17F34
331
17FAA
  5
17FAF
331
1806B
  5
18072
331
17FE9
  5
17FF0
331
17F6B
  5
17F6F
331
1802C
  5
18033
331
17FE5
  5
17FEC
331
18067
  5
1806E
331
18063
  5
1806A
331
17FE1
  5
17FE8
331
17F67
  5
17F6B
331
17FA6
  5
17FAB
331
17EED
  5
17EF0
331
17F28
  5
17F30
331
17F63
  5
17F67
331
17FA2
  5
17FA7
331
17FDD
  5
17FE4
331
17F5F
  5
17F63
331
17F9E
  5
17FA2
331
1805F
  5
18066
331
17EE5
  5
17EED
331
17F24
  5
17F27
331
17EE1
  5
17EE3
331
17F20
  5
17F23
331
1805B
  5
18062
331
17FD9
  5
17FE0
331
18018
  5
18030
331
17F5B
  5
17F5F
331
17F9A
  5
17F9E
331
17FD5
  5
17FDC
331
18014
  5
1802E
331
18057
  5
1805E
331
18053
  5
1805A
331
17FD1
  5
17FD8
331
18010
  5
18019
331
17F1C
  5
17F1F
331
17F96
  5
17F9A
331
17F57
  5
17F5B
331
17EDD
  5
17EDF
331
17F18
  5
17F1B
331
17ED9
  5
17ED9
331
17F92
  5
17F96
331
17F53
  5
17F57
331
17F8E
  5
17F92
331
1800C
  5
18014
331
17FCD
  5
17FD4
331
17F4F
  5
17F53
331
18836
  5
17EDE
331
1804F
  5
18056
331
17F14
  5
17F17
331
17F10
  5
17F13
331
17F8A
  5
17F8E
331
18008
  5
1800F
331
1804B
  5
18052
331
17FC9
  5
17FD0
331
17F4B
  5
17F4F
331
18004
  5
1800C
331
17FC5
  5
17FCB
331
1851E
  5
1875A
331
18047
  5
1804E
331
18000
  5
18007
331
18043
  5
1804A
331
17FC1
  5
17FC6
331
17F86
  5
17F8A
331
17F47
  5
17F4B
331
17F0C
  5
17F0F
331
17F08
  5
17F0B
331
17F82
  5
17F86
331
17F43
  5
17F47
331
17F7E
  5
17F82
331
17FFC
  5
18003
331
17FBD
  5
17FC2
331
17F3F
  5
17F43
331
184B6
  5
17FCF
331
1803F
  5
18046
331
17F04
  5
17F07
331
17F00
  5
17F03
331
17F3B
  5
17F3F
331
17FF8
  5
17FFF
331
17F7A
  5
17F7E
331
184B2
  5
1851C
331
1803B
  5
18042
331
17FB9
  5
17FBE
331
17FF4
  5
17FFB
331
18037
  5
1803E
331
17FB5
  5
17FBA
331
17FB1
  5
17FB6
331
18072
  5
184B6
331
18033
  5
1803A
331
17FF0
  5
17FF7
331
17EFC
  5
17EFF
331
17F76
  5
17F7A
331
17F37
  5
17F3B
331
17F72
  5
17F76
331
17EF8
  5
17EFB
331
17F33
  5
17F37
331
17EF4
  5
17EF7
331
17FAD
  5
17FB2
331
1806E
  5
184B0
331
17FEC
  5
17FF3
331
17F6E
  5
17F72
331
17FA9
  5
17FAE
331
17FE8
  5
17FEF
331
1802F
  5
18036
331
17F6A
  5
17F6E
331
1806A
  5
18071
331
17EF0
  5
17EF3
331
18066
  5
1806D
331
17FE4
  5
17FEB
331
1802B
  5
18032
331
17FE0
  5
17FE7
331
18062
  5
18069
331
17F2F
  5
17F33
331
17EEC
  5
17EEF
331
17F66
  5
17F6A
331
17FA5
  5
17FAA
331
17F62
  5
17F66
331
17FA1
  5
17FA5
331
17F27
  5
17F2F
331
17EE4
  5
17EE6
331
17F23
  5
17F26
331
1805E
  5
18065
331
17FDC
  5
17FE3
331
17F5E
  5
17F62
331
17F9D
  5
17FA1
331
17FD8
  5
17FDF
331
17F5A
  5
17F5E
331
17F99
  5
17F9D
331
1805A
  5
18061
331
17EE0
  5
17EE2
331
18056
  5
1805D
331
17FD4
  5
17FDB
331
18013
  5
1802D
331
17FD0
  5
17FD7
331
18052
  5
18059
331
17F1F
  5
17F22
331
17F1B
  5
17F1E
331
17EDC
  5
17EDD
331
17F95
  5
17F99
331
17F56
  5
17F5A
331
17F17
  5
17F1A
331
17F91
  5
17F95
331
1800F
  5
18018
331
17F52
  5
17F56
331
17ED8
  5
17ED8
331
17F13
  5
17F16
331
17F8D
  5
17F91
331
1800B
  5
18013
331
1804E
  5
18055
331
17FCC
  5
17FD3
331
17F4E
  5
17F52
331
17F89
  5
17F8D
331
18007
  5
1800E
331
17FC8
  5
17FCE
331
17F4A
  5
17F4E
331
1804A
  5
18051
331
18003
  5
1800B
331
1851D
  5
1873F
331
18046
  5
1804D
331
17FC4
  5
17FCA
331
17FC0
  5
17FC5
331
18042
  5
18049
331
17F0F
  5
17F12
331
17F0B
  5
17F0E
331
17F85
  5
17F89
331
17F46
  5
17F4A
331
17F81
  5
17F85
331
17FFF
  5
18006
331
17F42
  5
17F46
331
17F07
  5
17F0A
331
17F03
  5
17F06
331
17F7D
  5
17F81
331
17FFB
  5
18002
331
184B5
  5
1851E
331
1803E
  5
18045
331
17FBC
  5
17FC1
331
17F3E
  5
17F42
331
17F79
  5
17F7D
331
17FF7
  5
17FFE
331
17FB8
  5
17FBD
331
17F3A
  5
17F3E
331
184B1
  5
1851B
331
1803A
  5
18041
331
17FF3
  5
17FFA
331
18036
  5
1803D
331
17FB4
  5
17FB9
331
17FB0
  5
17FB5
331
18071
  5
184B5
331
18032
  5
18039
331
17EFF
  5
17F02
331
17EFB
  5
17EFE
331
17F75
  5
17F79
331
17FEF
  5
17FF6
331
17F71
  5
17F75
331
17EF7
  5
17EFA
331
17F36
  5
17F3A
331
17EF3
  5
17EF6
331
17F32
  5
17F36
331
17FAC
  5
17FB1
331
1806D
  5
184AE
331
17FEB
  5
17FF2
331
17F6D
  5
17F71
331
17FA8
  5
17FAD
331
1802E
  5
18035
331
17FE7
  5
17FEE
331
17F69
  5
17F6D
331
18069
  5
18070
331
18065
  5
1806C
331
17FE3
  5
17FEA
331
18061
  5
18068
331
17EEF
  5
17EF2
331
17F2E
  5
17F32
331
17F65
  5
17F69
331
17FA4
  5
17FA9
331
17FDF
  5
17FE6
331
17F61
  5
17F65
331
17FA0
  5
17FA4
331
17F26
  5
17F2A
331
17EE3
  5
17EE5
331
17F22
  5
17F25
331
1805D
  5
18064
331
17FDB
  5
17FE2
331
17F5D
  5
17F61
331
17F9C
  5
17FA0
331
17FD7
  5
17FDE
331
17F59
  5
17F5D
331
17F98
  5
17F9C
331
18059
  5
18060
331
18055
  5
1805C
331
17FD3
  5
17FDA
331
18012
  5
1802C
331
18838
  5
17EDB
331
18051
  5
18058
331
17F1E
  5
17F21
331
17EDF
  5
17EE1
331
17F1A
  5
17F1D
331
17EDB
  5
17EDC
331
17F94
  5
17F98
331
17F55
  5
17F59
331
17F16
  5
17F19
331
17F90
  5
17F94
331
1800E
  5
18015
331
17FCF
  5
17FD6
331
17F51
  5
17F55
331
17ED7
  5
17ED7
331
17F12
  5
17F15
331
17F8C
  5
17F90
331
1800A
  5
18012
331
1804D
  5
18054
331
17FCB
  5
17FD2
331
17F4D
  5
17F51
331
17F88
  5
17F8C
331
17FC7
  5
17FCD
331
17F49
  5
17F4D
331
18049
  5
18050
331
18002
  5
18009
331
1851C
  5
18721
331
18045
  5
1804C
331
17FC3
  5
17FC8
331
18041
  5
18048
331
17F0E
  5
17F11
331
17F0A
  5
17F0D
331
17F84
  5
17F88
331
17F45
  5
17F49
331
17F80
  5
17F84
331
17FFE
  5
18005
331
17FBF
  5
17FC4
331
17F41
  5
17F45
331
17F06
  5
17F09
331
17F02
  5
17F05
331
17F7C
  5
17F80
331
17FFA
  5
18001
331
184B4
  5
1851D
331
1803D
  5
18044
331
17FBB
  5
17FC0
331
17F3D
  5
17F41
331
17F78
  5
17F7C
331
17FF6
  5
17FFD
331
17FB7
  5
17FBC
331
17F39
  5
17F3D
331
18039
  5
18040
331
17FF2
  5
17FF9
331
18035
  5
1803C
331
17FB3
  5
17FB8
331
18070
  5
184B4
331
18031
  5
18038
  0
XRECORD
  5
18FBD
102
{ACAD_REACTORS
330
18FBC
102
}
330
18FBC
100
AcDbXrecord
280
     1
102
SHADEPLOT
 70
     0
  0
XRECORD
  5
18FBF
102
{ACAD_REACTORS
330
18FBE
102
}
330
18FBE
100
AcDbXrecord
280
     1
102
SHADEPLOT
 70
     0
  0
XRECORD
  5
18F94
102
{ACAD_REACTORS
330
18F93
102
}
330
18F93
100
AcDbXrecord
280
     1
 40
0.18
  0
XRECORD
  5
18F96
102
{ACAD_REACTORS
330
18F93
102
}
330
18F93
100
AcDbXrecord
280
     1
340
15
  0
XRECORD
  5
18F97
102
{ACAD_REACTORS
330
18F93
102
}
330
18F93
100
AcDbXrecord
280
     1
340
15
  0
XRECORD
  5
18F95
102
{ACAD_REACTORS
330
18F93
102
}
330
18F93
100
AcDbXrecord
280
     1
340
15
  0
LAYOUT
  5
18E5A
102
{ACAD_XDICTIONARY
360
18E67
102
}
102
{ACAD_REACTORS
330
1A
102
}
330
1A
100
AcDbPlotSettings
  1

  2
Fax
  4
Letter
  6

 40
3.174999952316284
 41
3.174999952316284
 42
3.175003051757812
 43
3.17498779296875
 44
215.8999938964844
 45
279.3999938964844
 46
0.0
 47
0.0
 48
0.0
 49
0.0
140
0.0
141
0.0
142
1.0
143
1.0
 70
   688
 72
     0
 73
     1
 74
     5
  7

 75
    16
147
1.0
148
0.0
149
0.0
100
AcDbLayout
  1
Layout1
 70
     1
 71
     1
 10
-0.1249995194082185
 20
-0.1249999981226884
 11
10.87500024029589
 21
8.37499976158142
 12
0.0
 22
0.0
 32
0.0
 14
1.07500002421732
 24
0.8249999641433474
 34
0.0
 15
9.675000217955883
 25
7.424999677290128
 35
0.0
146
0.0
 13
0.0
 23
0.0
 33
0.0
 16
1.0
 26
0.0
 36
0.0
 17
0.0
 27
1.0
 37
0.0
 76
     0
330
18E59
331
18E60
1001
ACAD_PSEXT
1000
Fax
1000
Microsoft Shared Fax Driver
1000
SHRFAX:
1000

1070
     0
  0
LAYOUT
  5
22
102
{ACAD_XDICTIONARY
360
18F98
102
}
102
{ACAD_REACTORS
330
1A
102
}
330
1A
100
AcDbPlotSettings
  1

  2
Adobe PDF
  4
Letter
  6

 40
3.174999952316284
 41
3.174999952316284
 42
3.175003051757812
 43
3.17498779296875
 44
215.8999938964844
 45
279.3999938964844
 46
-2051.923762293473
 47
-2301.769710097025
 48
299.5134081171691
 49
-23.241983945828
140
491.505117815801
141
146.5768158761939
142
1.0
143
1.0
 70
 11940
 72
     0
 73
     1
 74
     4
  7

 75
     0
147
0.0485811915411007
148
-7607.640566176094
149
590.3463922240311
100
AcDbLayout
  1
Model
 70
     1
 71
     0
 10
0.0
 20
0.0
 11
12.0
 21
9.0
 12
0.0
 22
0.0
 32
0.0
 14
0.0
 24
0.0
 34
0.0
 15
0.0
 25
0.0
 35
0.0
146
0.0
 13
0.0
 23
0.0
 33
0.0
 16
1.0
 26
0.0
 36
0.0
 17
0.0
 27
1.0
 37
0.0
 76
     0
330
1F
331
D2BC
1001
ACAD_PSEXT
1000
Adobe PDF
1000
Adobe PDF Converter
1000
My Documents
1000

1070
     0
  0
MATERIAL
  5
D2C4
102
{ACAD_XDICTIONARY
360
18FA1
102
}
102
{ACAD_REACTORS
330
72
102
}
330
72
100
AcDbMaterial
  1
ByBlock
 73
     1
 78
     1
172
     1
176
     1
270
     1
274
     1
  0
MATERIAL
  5
D2C3
102
{ACAD_XDICTIONARY
360
18F9F
102
}
102
{ACAD_REACTORS
330
72
102
}
330
72
100
AcDbMaterial
  1
ByLayer
 73
     1
 78
     1
172
     1
176
     1
270
     1
274
     1
  0
MATERIAL
  5
43D6
102
{ACAD_XDICTIONARY
360
18F9B
102
}
102
{ACAD_REACTORS
330
72
102
}
330
72
100
AcDbMaterial
  1
Global
 73
     1
 78
     1
172
     1
176
     1
270
     1
274
     1
  0
MLEADERSTYLE
  5
18F7B
102
{ACAD_XDICTIONARY
360
18F8F
102
}
102
{ACAD_REACTORS
330
18F7A
102
}
330
18F7A
100
AcDbMLeaderStyle
170
     2
171
     1
172
     0
 90
        2
 40
0.0
 41
0.0
173
     1
 91
-1056964608
340
14
 92
       -2
290
     1
 42
0.09
291
     1
 43
0.36
  3
Standard
 44
0.18
300

342
11
174
     1
178
     6
175
     1
176
     0
 93
-1056964608
 45
0.18
292
     0
297
     0
 46
0.18
 94
-1056964608
 47
1.0
 49
1.0
140
1.0
293
     1
141
0.0
294
     1
177
     0
142
1.0
295
     0
296
     0
143
0.125
1001
ACAD_MLEADERVER
1070
     2
  0
MLINESTYLE
  5
18
102
{ACAD_REACTORS
330
17
102
}
330
17
100
AcDbMlineStyle
  2
STANDARD
 70
     0
  3

 62
   256
 51
90.0
 52
90.0
 71
     2
 49
0.5
 62
   256
  6
BYLAYER
 49
-0.5
 62
   256
  6
BYLAYER
  0
PLOTSETTINGS
  5
A580
102
{ACAD_XDICTIONARY
360
18F9D
102
}
102
{ACAD_REACTORS
330
19
102
}
330
19
100
AcDbPlotSettings
  1
Setup1
  2
none_device
  4
Letter_(8.50_x_11.00_Inches)
  6

 40
6.349999904632568
 41
6.349999904632568
 42
6.350006103515625
 43
6.350006103515625
 44
215.8999938964844
 45
279.3999938964844
 46
0.0
 47
0.0
 48
0.0
 49
0.0
140
0.0
141
0.0
142
1.0
143
1.0
 70
 15024
 72
     0
 73
     1
 74
     5
  7

 75
    16
147
1.0
148
0.0
149
0.0
1001
ACAD_PSEXT
1000
None
1000
None
1000
Not applicable
1000
The layout will not be plotted unless a new plotter configuration name is selected.
1070
     0
  0
ACDBPLACEHOLDER
  5
F
102
{ACAD_REACTORS
330
E
102
}
330
E
  0
SCALE
  5
18F69
102
{ACAD_REACTORS
330
18F68
102
}
330
18F68
100
AcDbScale
 70
     0
300
1:1
140
1.0
141
1.0
290
     1
  0
SCALE
  5
18F6A
102
{ACAD_REACTORS
330
18F68
102
}
330
18F68
100
AcDbScale
 70
     0
300
1/128" = 1'-0"
140
0.0078125
141
12.0
290
     0
  0
SCALE
  5
18F6B
102
{ACAD_REACTORS
330
18F68
102
}
330
18F68
100
AcDbScale
 70
     0
300
1/64" = 1'-0"
140
0.015625
141
12.0
290
     0
  0
SCALE
  5
18F6C
102
{ACAD_REACTORS
330
18F68
102
}
330
18F68
100
AcDbScale
 70
     0
300
1/32" = 1'-0"
140
0.03125
141
12.0
290
     0
  0
SCALE
  5
18F6D
102
{ACAD_REACTORS
330
18F68
102
}
330
18F68
100
AcDbScale
 70
     0
300
1/16" = 1'-0"
140
0.0625
141
12.0
290
     0
  0
SCALE
  5
18F6E
102
{ACAD_REACTORS
330
18F68
102
}
330
18F68
100
AcDbScale
 70
     0
300
3/32" = 1'-0"
140
0.09375
141
12.0
290
     0
  0
SCALE
  5
18F6F
102
{ACAD_REACTORS
330
18F68
102
}
330
18F68
100
AcDbScale
 70
     0
300
1/8" = 1'-0"
140
0.125
141
12.0
290
     0
  0
SCALE
  5
18F70
102
{ACAD_REACTORS
330
18F68
102
}
330
18F68
100
AcDbScale
 70
     0
300
3/16" = 1'-0"
140
0.1875
141
12.0
290
     0
  0
SCALE
  5
18F71
102
{ACAD_REACTORS
330
18F68
102
}
330
18F68
100
AcDbScale
 70
     0
300
1/4" = 1'-0"
140
0.25
141
12.0
290
     0
  0
SCALE
  5
18F72
102
{ACAD_REACTORS
330
18F68
102
}
330
18F68
100
AcDbScale
 70
     0
300
3/8" = 1'-0"
140
0.375
141
12.0
290
     0
  0
SCALE
  5
18F73
102
{ACAD_REACTORS
330
18F68
102
}
330
18F68
100
AcDbScale
 70
     0
300
1/2" = 1'-0"
140
0.5
141
12.0
290
     0
  0
SCALE
  5
18F74
102
{ACAD_REACTORS
330
18F68
102
}
330
18F68
100
AcDbScale
 70
     0
300
3/4" = 1'-0"
140
0.75
141
12.0
290
     0
  0
SCALE
  5
18F75
102
{ACAD_REACTORS
330
18F68
102
}
330
18F68
100
AcDbScale
 70
     0
300
1" = 1'-0"
140
1.0
141
12.0
290
     0
  0
SCALE
  5
18F76
102
{ACAD_REACTORS
330
18F68
102
}
330
18F68
100
AcDbScale
 70
     0
300
1-1/2" = 1'-0"
140
1.5
141
12.0
290
     0
  0
SCALE
  5
18F77
102
{ACAD_REACTORS
330
18F68
102
}
330
18F68
100
AcDbScale
 70
     0
300
3" = 1'-0"
140
3.0
141
12.0
290
     0
  0
SCALE
  5
18F78
102
{ACAD_REACTORS
330
18F68
102
}
330
18F68
100
AcDbScale
 70
     0
300
6" = 1'-0"
140
6.0
141
12.0
290
     0
  0
SCALE
  5
18F79
102
{ACAD_REACTORS
330
18F68
102
}
330
18F68
100
AcDbScale
 70
     0
300
1'-0" = 1'-0"
140
12.0
141
12.0
290
     0
  0
TABLESTYLE
  5
87
102
{ACAD_XDICTIONARY
360
18F8D
102
}
102
{ACAD_REACTORS
330
86
102
}
330
86
100
AcDbTableStyle
  3
Standard
 70
     0
 71
     0
 40
0.06
 41
0.06
280
     0
281
     0
  7
Standard
140
0.18
170
     2
 62
     0
 63
     7
283
     0
274
    -2
284
     1
 64
     0
275
    -2
285
     1
 65
     0
276
    -2
286
     1
 66
     0
277
    -2
287
     1
 67
     0
278
    -2
288
     1
 68
     0
279
    -2
289
     1
 69
     0
  7
Standard
140
0.25
170
     5
 62
     0
 63
     7
283
     0
274
    -2
284
     1
 64
     0
275
    -2
285
     1
 65
     0
276
    -2
286
     1
 66
     0
277
    -2
287
     1
 67
     0
278
    -2
288
     1
 68
     0
279
    -2
289
     1
 69
     0
  7
Standard
140
0.18
170
     5
 62
     0
 63
     7
283
     0
274
    -2
284
     1
 64
     0
275
    -2
285
     1
 65
     0
276
    -2
286
     1
 66
     0
277
    -2
287
     1
 67
     0
278
    -2
288
     1
 68
     0
279
    -2
289
     1
 69
     0
  0
VISUALSTYLE
  5
D2CB
102
{ACAD_XDICTIONARY
360
18FAD
102
}
102
{ACAD_REACTORS
330
D2C5
102
}
330
D2C5
100
AcDbVisualStyle
  2
2dWireframe
 70
     4
 71
     0
 72
     2
 73
     0
 90
        0
 40
-0.6
 41
-30.0
 62
     5
 63
     7
 74
     1
 91
        4
 64
     7
 65
   257
 75
     1
175
     1
 42
1.0
 92
        0
 66
   257
 43
1.0
 76
     1
 77
     6
 78
     2
 67
     7
 79
     5
170
     0
171
     0
290
     0
174
     0
 93
        1
 44
0.0
173
     0
291
     0
 45
0.0
1001
ACAD
1000
AcDbSavedByObjectVersion
1070
     0
  0
VISUALSTYLE
  5
D2CA
102
{ACAD_XDICTIONARY
360
18FAB
102
}
102
{ACAD_REACTORS
330
D2C5
102
}
330
D2C5
100
AcDbVisualStyle
  2
Basic
 70
     7
 71
     1
 72
     0
 73
     1
 90
        0
 40
-0.6
 41
-30.0
 62
     5
 63
     7
 74
     0
 91
        4
 64
     7
 65
   257
 75
     1
175
     1
 42
1.0
 92
        8
 66
     7
 43
1.0
 76
     1
 77
     6
 78
     2
 67
     7
 79
     5
170
     0
171
     0
290
     0
174
     0
 93
        1
 44
0.0
173
     0
291
     1
 45
0.0
1001
ACAD
1000
AcDbSavedByObjectVersion
1070
     0
  0
VISUALSTYLE
  5
D2D1
102
{ACAD_XDICTIONARY
360
18FB1
102
}
102
{ACAD_REACTORS
330
D2C5
102
}
330
D2C5
100
AcDbVisualStyle
  2
Brighten
 70
    12
 71
     2
 72
     2
 73
     0
 90
        0
 40
-0.6
 41
-30.0
 62
     5
 63
     7
 74
     1
 91
        4
 64
     7
 65
   257
 75
     1
175
     1
 42
1.0
 92
        8
 66
     7
 43
1.0
 76
     1
 77
     6
 78
     2
 67
     7
 79
     5
170
     0
171
     0
290
     0
174
     0
 93
        1
 44
50.0
173
     0
291
     1
 45
0.0
1001
ACAD
1000
AcDbSavedByObjectVersion
1070
     0
  0
VISUALSTYLE
  5
D2D5
102
{ACAD_XDICTIONARY
360
18FB9
102
}
102
{ACAD_REACTORS
330
D2C5
102
}
330
D2C5
100
AcDbVisualStyle
  2
ColorChange
 70
    16
 71
     2
 72
     2
 73
     3
 90
        0
 40
-0.6
 41
-30.0
 62
     5
 63
     8
 74
     1
 91
        4
 64
     7
 65
   257
 75
     1
175
     1
 42
1.0
 92
        8
 66
     8
 43
1.0
 76
     1
 77
     6
 78
     2
 67
     7
 79
     5
170
     0
171
     0
290
     0
174
     0
 93
        1
 44
0.0
173
     0
291
     1
 45
0.0
1001
ACAD
1000
AcDbSavedByObjectVersion
1070
     0
  0
VISUALSTYLE
  5
18F5E
102
{ACAD_XDICTIONARY
360
18FC4
102
}
102
{ACAD_REACTORS
330
D2C5
102
}
330
D2C5
100
AcDbVisualStyle
  2
Conceptual
 70
     9
 71
     3
 72
     2
 73
     0
 90
        0
 40
-0.6
 41
-30.0
 62
     5
 63
     7
 74
     2
 91
        2
 64
     7
 65
   257
 75
     1
175
     1
 42
179.0
 92
        8
 66
     7
 43
1.0
 76
     1
 77
     6
 78
     2
 67
     7
 79
     3
170
     0
171
     0
290
     0
174
     0
 93
        1
 44
0.0
173
     0
291
     0
 45
0.0
1001
ACAD
1000
AcDbSavedByObjectVersion
1070
     0
  0
VISUALSTYLE
  5
D2D0
102
{ACAD_XDICTIONARY
360
18FAF
102
}
102
{ACAD_REACTORS
330
D2C5
102
}
330
D2C5
100
AcDbVisualStyle
  2
Dim
 70
    11
 71
     2
 72
     2
 73
     0
 90
        0
 40
-0.6
 41
-30.0
 62
     5
 63
     7
 74
     1
 91
        4
 64
     7
 65
   257
 75
     1
175
     1
 42
1.0
 92
        8
 66
     7
 43
1.0
 76
     1
 77
     6
 78
     2
 67
     7
 79
     5
170
     0
171
     0
290
     0
174
     0
 93
        1
 44
-50.0
173
     0
291
     1
 45
0.0
1001
ACAD
1000
AcDbSavedByObjectVersion
1070
     0
  0
VISUALSTYLE
  5
18F67
102
{ACAD_XDICTIONARY
360
18FD6
102
}
102
{ACAD_REACTORS
330
D2C5
102
}
330
D2C5
100
AcDbVisualStyle
  2
EdgeColorOff
 70
    22
 71
     2
 72
     2
 73
     0
 90
        0
 40
-0.6
 41
-30.0
 62
     5
 63
     7
 74
     1
 91
        4
 64
     7
 65
   257
 75
     1
175
     1
 42
1.0
 92
        8
 66
     7
 43
1.0
 76
     1
 77
     6
 78
     2
 67
     7
 79
     5
170
     0
171
     0
290
     0
174
     0
 93
        1
 44
0.0
173
     0
291
     1
 45
0.0
1001
ACAD
1000
AcDbSavedByObjectVersion
1070
     0
  0
VISUALSTYLE
  5
D2D4
102
{ACAD_XDICTIONARY
360
18FB7
102
}
102
{ACAD_REACTORS
330
D2C5
102
}
330
D2C5
100
AcDbVisualStyle
  2
Facepattern
 70
    15
 71
     2
 72
     2
 73
     0
 90
        0
 40
-0.6
 41
-30.0
 62
     5
 63
     7
 74
     1
 91
        4
 64
     7
 65
   257
 75
     1
175
     1
 42
1.0
 92
        8
 66
     7
 43
1.0
 76
     1
 77
     6
 78
     2
 67
     7
 79
     5
170
     0
171
     0
290
     0
174
     0
 93
        1
 44
0.0
173
     0
291
     1
 45
0.0
1001
ACAD
1000
AcDbSavedByObjectVersion
1070
     0
  0
VISUALSTYLE
  5
D2C6
102
{ACAD_XDICTIONARY
360
18FA3
102
}
102
{ACAD_REACTORS
330
D2C5
102
}
330
D2C5
100
AcDbVisualStyle
  2
Flat
 70
     0
 71
     2
 72
     1
 73
     1
 90
        2
 40
-0.6
 41
30.0
 62
     5
 63
     7
 74
     0
 91
        4
 64
     7
 65
   257
 75
     1
175
     1
 42
1.0
 92
        8
 66
     7
 43
1.0
 76
     1
 77
     6
 78
     2
 67
     7
 79
     5
170
     0
171
     0
290
     0
174
     0
 93
       13
 44
0.0
173
     0
291
     1
 45
0.0
1001
ACAD
1000
AcDbSavedByObjectVersion
1070
     0
  0
VISUALSTYLE
  5
D2C7
102
{ACAD_XDICTIONARY
360
18FA5
102
}
102
{ACAD_REACTORS
330
D2C5
102
}
330
D2C5
100
AcDbVisualStyle
  2
FlatWithEdges
 70
     1
 71
     2
 72
     1
 73
     1
 90
        2
 40
-0.6
 41
30.0
 62
     5
 63
     7
 74
     1
 91
        4
 64
     7
 65
   257
 75
     1
175
     1
 42
1.0
 92
        0
 66
   257
 43
1.0
 76
     1
 77
     6
 78
     2
 67
     7
 79
     5
170
     0
171
     0
290
     0
174
     0
 93
       13
 44
0.0
173
     0
291
     1
 45
0.0
1001
ACAD
1000
AcDbSavedByObjectVersion
1070
     0
  0
VISUALSTYLE
  5
D2C8
102
{ACAD_XDICTIONARY
360
18FA7
102
}
102
{ACAD_REACTORS
330
D2C5
102
}
330
D2C5
100
AcDbVisualStyle
  2
Gouraud
 70
     2
 71
     2
 72
     2
 73
     1
 90
        2
 40
-0.6
 41
30.0
 62
     5
 63
     7
 74
     0
 91
        4
 64
     7
 65
   257
 75
     1
175
     1
 42
1.0
 92
        0
 66
     7
 43
1.0
 76
     1
 77
     6
 78
     2
 67
     7
 79
     5
170
     0
171
     0
290
     0
174
     0
 93
       13
 44
0.0
173
     0
291
     1
 45
0.0
1001
ACAD
1000
AcDbSavedByObjectVersion
1070
     0
  0
VISUALSTYLE
  5
D2C9
102
{ACAD_XDICTIONARY
360
18FA9
102
}
102
{ACAD_REACTORS
330
D2C5
102
}
330
D2C5
100
AcDbVisualStyle
  2
GouraudWithEdges
 70
     3
 71
     2
 72
     2
 73
     1
 90
        2
 40
-0.6
 41
30.0
 62
     5
 63
     7
 74
     1
 91
        4
 64
     7
 65
   257
 75
     1
175
     1
 42
1.0
 92
        0
 66
   257
 43
1.0
 76
     1
 77
     6
 78
     2
 67
     7
 79
     5
170
     0
171
     0
290
     0
174
     0
 93
       13
 44
0.0
173
     0
291
     1
 45
0.0
1001
ACAD
1000
AcDbSavedByObjectVersion
1070
     0
  0
VISUALSTYLE
  5
18F5D
102
{ACAD_XDICTIONARY
360
18FC2
102
}
102
{ACAD_REACTORS
330
D2C5
102
}
330
D2C5
100
AcDbVisualStyle
  2
Hidden
 70
     6
 71
     1
 72
     2
 73
     2
 90
        0
 40
-0.6
 41
-30.0
 62
     5
 63
     7
 74
     2
 91
        2
 64
     7
 65
   257
 75
     2
175
     1
 42
40.0
 92
        0
 66
   257
 43
1.0
 76
     1
 77
     6
 78
     2
 67
     7
 79
     3
170
     0
171
     0
290
     0
174
     0
 93
        1
 44
0.0
173
     0
291
     0
 45
0.0
1001
ACAD
1000
AcDbSavedByObjectVersion
1070
     0
  0
VISUALSTYLE
  5
18F65
102
{ACAD_XDICTIONARY
360
18FD2
102
}
102
{ACAD_REACTORS
330
D2C5
102
}
330
D2C5
100
AcDbVisualStyle
  2
JitterOff
 70
    20
 71
     2
 72
     2
 73
     0
 90
        0
 40
-0.6
 41
-30.0
 62
     5
 63
     7
 74
     1
 91
        4
 64
     7
 65
   257
 75
     1
175
     1
 42
1.0
 92
       10
 66
     7
 43
1.0
 76
     1
 77
     6
 78
     2
 67
     7
 79
     5
170
     0
171
     0
290
     0
174
     0
 93
        1
 44
0.0
173
     0
291
     1
 45
0.0
1001
ACAD
1000
AcDbSavedByObjectVersion
1070
     0
  0
VISUALSTYLE
  5
D2D3
102
{ACAD_XDICTIONARY
360
18FB5
102
}
102
{ACAD_REACTORS
330
D2C5
102
}
330
D2C5
100
AcDbVisualStyle
  2
Linepattern
 70
    14
 71
     2
 72
     2
 73
     0
 90
        0
 40
-0.6
 41
-30.0
 62
     5
 63
     7
 74
     1
 91
        4
 64
     7
 65
   257
 75
     7
175
     7
 42
1.0
 92
        8
 66
     7
 43
1.0
 76
     1
 77
     6
 78
     2
 67
     7
 79
     5
170
     0
171
     0
290
     0
174
     0
 93
        1
 44
0.0
173
     0
291
     1
 45
0.0
1001
ACAD
1000
AcDbSavedByObjectVersion
1070
     0
  0
VISUALSTYLE
  5
18F66
102
{ACAD_XDICTIONARY
360
18FD4
102
}
102
{ACAD_REACTORS
330
D2C5
102
}
330
D2C5
100
AcDbVisualStyle
  2
OverhangOff
 70
    21
 71
     2
 72
     2
 73
     0
 90
        0
 40
-0.6
 41
-30.0
 62
     5
 63
     7
 74
     1
 91
        4
 64
     7
 65
   257
 75
     1
175
     1
 42
1.0
 92
        9
 66
     7
 43
1.0
 76
     1
 77
     6
 78
     2
 67
     7
 79
     5
170
     0
171
     0
290
     0
174
     0
 93
        1
 44
0.0
173
     0
291
     1
 45
0.0
1001
ACAD
1000
AcDbSavedByObjectVersion
1070
     0
  0
VISUALSTYLE
  5
18F5F
102
{ACAD_XDICTIONARY
360
18FC6
102
}
102
{ACAD_REACTORS
330
D2C5
102
}
330
D2C5
100
AcDbVisualStyle
  2
Realistic
 70
     8
 71
     2
 72
     3
 73
     0
 90
        2
 40
-0.6
 41
30.0
 62
     5
 63
     7
 74
     0
 91
        0
 64
     7
 65
   257
 75
     1
175
     1
 42
1.0
 92
        8
 66
   257
 43
1.0
 76
     1
 77
     6
 78
     2
 67
     7
 79
     3
170
     0
171
     0
290
     0
174
     0
 93
       13
 44
0.0
173
     0
291
     0
 45
0.0
1001
ACAD
1000
AcDbSavedByObjectVersion
1070
     0
  0
VISUALSTYLE
  5
18F64
102
{ACAD_XDICTIONARY
360
18FD0
102
}
102
{ACAD_REACTORS
330
D2C5
102
}
330
D2C5
100
AcDbVisualStyle
  2
Shaded
 70
    27
 71
     2
 72
     2
 73
     1
 90
        2
 40
-0.6
 41
30.0
 62
     5
 63
     7
 74
     0
 91
        4
 64
     7
 65
   257
 75
     1
175
     1
 42
1.0
 92
        8
 66
   257
 43
1.0
 76
     1
 77
     6
 78
     2
 67
     8
 79
     3
170
     0
171
     0
290
     0
174
     0
 93
        5
 44
0.0
173
     0
291
     0
 45
0.0
1001
ACAD
1000
AcDbSavedByObjectVersion
1070
     0
  0
VISUALSTYLE
  5
18F63
102
{ACAD_XDICTIONARY
360
18FCE
102
}
102
{ACAD_REACTORS
330
D2C5
102
}
330
D2C5
100
AcDbVisualStyle
  2
Shaded with edges
 70
    26
 71
     2
 72
     2
 73
     1
 90
        2
 40
-0.6
 41
30.0
 62
     5
 63
     7
 74
     1
 91
       10
 64
     7
 65
   257
 75
     2
175
     1
 42
1.0
 92
        8
 66
   257
 43
1.0
 76
     1
 77
     6
 78
     2
 67
     7
 79
     3
170
     0
171
     0
290
     0
174
     0
 93
        5
 44
0.0
173
     0
291
     0
 45
0.0
1001
ACAD
1000
AcDbSavedByObjectVersion
1070
     0
  0
VISUALSTYLE
  5
18F60
102
{ACAD_XDICTIONARY
360
18FC8
102
}
102
{ACAD_REACTORS
330
D2C5
102
}
330
D2C5
100
AcDbVisualStyle
  2
Shades of Gray
 70
    23
 71
     2
 72
     2
 73
     3
 90
        0
 40
-0.6
 41
-30.0
 62
     5
 63
     7
 74
     2
 91
        2
 64
     7
 65
     7
 75
     1
175
     1
 42
40.0
 92
        8
 66
     7
 43
1.0
 76
     1
 77
     6
 78
     2
 67
     7
 79
     3
170
     0
171
     0
290
     0
174
     0
 93
        1
 44
0.0
173
     0
291
     0
 45
0.0
1001
ACAD
1000
AcDbSavedByObjectVersion
1070
     0
  0
VISUALSTYLE
  5
18F61
102
{ACAD_XDICTIONARY
360
18FCA
102
}
102
{ACAD_REACTORS
330
D2C5
102
}
330
D2C5
100
AcDbVisualStyle
  2
Sketchy
 70
    24
 71
     1
 72
     2
 73
     2
 90
        0
 40
-0.6
 41
-30.0
 62
     5
 63
     7
 74
     2
 91
        2
 64
     7
 65
     7
 75
     1
175
     1
 42
40.0
 92
       11
 66
     7
 43
1.0
 76
     1
 77
     6
 78
     2
 67
     7
 79
     6
170
     0
171
     0
290
     0
174
     0
 93
        1
 44
0.0
173
     0
291
     0
 45
0.0
1001
ACAD
1000
AcDbSavedByObjectVersion
1070
     0
  0
VISUALSTYLE
  5
D2D2
102
{ACAD_XDICTIONARY
360
18FB3
102
}
102
{ACAD_REACTORS
330
D2C5
102
}
330
D2C5
100
AcDbVisualStyle
  2
Thicken
 70
    13
 71
     2
 72
     2
 73
     0
 90
        0
 40
-0.6
 41
-30.0
 62
     5
 63
     7
 74
     1
 91
        4
 64
     7
 65
   257
 75
     1
175
     1
 42
1.0
 92
       12
 66
     7
 43
1.0
 76
     1
 77
     6
 78
     2
 67
     7
 79
     5
170
     0
171
     0
290
     0
174
     0
 93
        1
 44
0.0
173
     0
291
     1
 45
0.0
1001
ACAD
1000
AcDbSavedByObjectVersion
1070
     0
  0
VISUALSTYLE
  5
18F5C
102
{ACAD_XDICTIONARY
360
18FC0
102
}
102
{ACAD_REACTORS
330
D2C5
102
}
330
D2C5
100
AcDbVisualStyle
  2
Wireframe
 70
     5
 71
     0
 72
     2
 73
     0
 90
        0
 40
-0.6
 41
-30.0
 62
     5
 63
     7
 74
     1
 91
        4
 64
     7
 65
   257
 75
     1
175
     1
 42
1.0
 92
        0
 66
   257
 43
1.0
 76
     1
 77
     6
 78
     2
 67
     7
 79
     3
170
     0
171
     0
290
     0
174
     0
 93
        1
 44
0.0
173
     0
291
     0
 45
0.0
1001
ACAD
1000
AcDbSavedByObjectVersion
1070
     0
  0
VISUALSTYLE
  5
18F62
102
{ACAD_XDICTIONARY
360
18FCC
102
}
102
{ACAD_REACTORS
330
D2C5
102
}
330
D2C5
100
AcDbVisualStyle
  2
X-Ray
 70
    25
 71
     2
 72
     2
 73
     1
 90
        1
 40
0.5
 41
-30.0
 62
     5
 63
     7
 74
     1
 91
        0
 64
     7
 65
   257
 75
     1
175
     1
 42
1.0
 92
        8
 66
     7
 43
1.0
 76
     1
 77
     6
 78
     2
 67
     7
 79
     3
170
     0
171
     0
290
     0
174
     0
 93
       13
 44
0.0
173
     0
291
     0
 45
0.0
1001
ACAD
1000
AcDbSavedByObjectVersion
1070
     0
  0
DICTIONARYVAR
  5
18F88
102
{ACAD_REACTORS
330
66
102
}
330
66
100
DictionaryVariables
280
     0
  1
1:1
  0
DICTIONARYVAR
  5
18F87
102
{ACAD_REACTORS
330
66
102
}
330
66
100
DictionaryVariables
280
     0
  1
STANDARD
  0
DICTIONARYVAR
  5
36F
102
{ACAD_REACTORS
330
66
102
}
330
66
100
DictionaryVariables
280
     0
  1
STANDARD
  0
DICTIONARYVAR
  5
67
102
{ACAD_REACTORS
330
66
102
}
330
66
100
DictionaryVariables
280
     0
  1
2
  0
DICTIONARYVAR
  5
6B
102
{ACAD_REACTORS
330
66
102
}
330
66
100
DictionaryVariables
280
     0
  1
1
  0
DICTIONARYVAR
  5
18F8A
102
{ACAD_REACTORS
330
66
102
}
330
66
100
DictionaryVariables
280
     0
  1
0
  0
DICTIONARYVAR
  5
18F89
102
{ACAD_REACTORS
330
66
102
}
330
66
100
DictionaryVariables
280
     0
  1
127
  0
DICTIONARYVAR
  5
18F8B
102
{ACAD_REACTORS
330
66
102
}
330
66
100
DictionaryVariables
280
     0
  1
0
  0
XRECORD
  5
CF31
102
{ACAD_REACTORS
330
CF30
102
}
330
CF30
100
AcDbXrecord
280
     1
330
0
330
0
330
0
330
0
330
0
330
0
330
0
330
0
330
0
  0
DICTIONARY
  5
18E67
330
18E5A
100
AcDbDictionary
280
     1
281
     1
  3
ACAD_XREC_ROUNDTRIP
360
18FBB
  3
ADSK_XREC_LAYOUTTHUMBNAIL
360
18E68
  0
DICTIONARY
  5
18F98
330
22
100
AcDbDictionary
280
     1
281
     1
  3
ACAD_XREC_ROUNDTRIP
360
18F99
  0
DICTIONARY
  5
18FA1
330
D2C4
100
AcDbDictionary
280
     1
281
     1
  3
ACAD_XREC_ROUNDTRIP
360
18FA2
  0
DICTIONARY
  5
18F9F
330
D2C3
100
AcDbDictionary
280
     1
281
     1
  3
ACAD_XREC_ROUNDTRIP
360
18FA0
  0
DICTIONARY
  5
18F9B
330
43D6
100
AcDbDictionary
280
     1
281
     1
  3
ACAD_XREC_ROUNDTRIP
360
18F9C
  0
DICTIONARY
  5
18F8F
330
18F7B
100
AcDbDictionary
280
     1
281
     1
  3
ACAD_XREC_ROUNDTRIP
360
18F90
  0
DICTIONARY
  5
18F9D
330
A580
100
AcDbDictionary
280
     1
281
     1
  3
ACAD_XREC_ROUNDTRIP
360
18F9E
  0
DICTIONARY
  5
18F8D
330
87
100
AcDbDictionary
280
     1
281
     1
  3
ACAD_ROUNDTRIP_2008_TABLESTYLE_CELLSTYLEMAP
360
18F8E
  3
ACAD_XREC_ROUNDTRIP
360
18F9A
  0
DICTIONARY
  5
18FAD
330
D2CB
100
AcDbDictionary
280
     1
281
     1
  3
ACAD_XREC_ROUNDTRIP
360
18FAE
  0
DICTIONARY
  5
18FAB
330
D2CA
100
AcDbDictionary
280
     1
281
     1
  3
ACAD_XREC_ROUNDTRIP
360
18FAC
  0
DICTIONARY
  5
18FB1
330
D2D1
100
AcDbDictionary
280
     1
281
     1
  3
ACAD_XREC_ROUNDTRIP
360
18FB2
  0
DICTIONARY
  5
18FB9
330
D2D5
100
AcDbDictionary
280
     1
281
     1
  3
ACAD_XREC_ROUNDTRIP
360
18FBA
  0
DICTIONARY
  5
18FC4
330
18F5E
100
AcDbDictionary
280
     1
281
     1
  3
ACAD_XREC_ROUNDTRIP
360
18FC5
  0
DICTIONARY
  5
18FAF
330
D2D0
100
AcDbDictionary
280
     1
281
     1
  3
ACAD_XREC_ROUNDTRIP
360
18FB0
  0
DICTIONARY
  5
18FD6
330
18F67
100
AcDbDictionary
280
     1
281
     1
  3
ACAD_XREC_ROUNDTRIP
360
18FD7
  0
DICTIONARY
  5
18FB7
330
D2D4
100
AcDbDictionary
280
     1
281
     1
  3
ACAD_XREC_ROUNDTRIP
360
18FB8
  0
DICTIONARY
  5
18FA3
330
D2C6
100
AcDbDictionary
280
     1
281
     1
  3
ACAD_XREC_ROUNDTRIP
360
18FA4
  0
DICTIONARY
  5
18FA5
330
D2C7
100
AcDbDictionary
280
     1
281
     1
  3
ACAD_XREC_ROUNDTRIP
360
18FA6
  0
DICTIONARY
  5
18FA7
330
D2C8
100
AcDbDictionary
280
     1
281
     1
  3
ACAD_XREC_ROUNDTRIP
360
18FA8
  0
DICTIONARY
  5
18FA9
330
D2C9
100
AcDbDictionary
280
     1
281
     1
  3
ACAD_XREC_ROUNDTRIP
360
18FAA
  0
DICTIONARY
  5
18FC2
330
18F5D
100
AcDbDictionary
280
     1
281
     1
  3
ACAD_XREC_ROUNDTRIP
360
18FC3
  0
DICTIONARY
  5
18FD2
330
18F65
100
AcDbDictionary
280
     1
281
     1
  3
ACAD_XREC_ROUNDTRIP
360
18FD3
  0
DICTIONARY
  5
18FB5
330
D2D3
100
AcDbDictionary
280
     1
281
     1
  3
ACAD_XREC_ROUNDTRIP
360
18FB6
  0
DICTIONARY
  5
18FD4
330
18F66
100
AcDbDictionary
280
     1
281
     1
  3
ACAD_XREC_ROUNDTRIP
360
18FD5
  0
DICTIONARY
  5
18FC6
330
18F5F
100
AcDbDictionary
280
     1
281
     1
  3
ACAD_XREC_ROUNDTRIP
360
18FC7
  0
DICTIONARY
  5
18FD0
330
18F64
100
AcDbDictionary
280
     1
281
     1
  3
ACAD_XREC_ROUNDTRIP
360
18FD1
  0
DICTIONARY
  5
18FCE
330
18F63
100
AcDbDictionary
280
     1
281
     1
  3
ACAD_XREC_ROUNDTRIP
360
18FCF
  0
DICTIONARY
  5
18FC8
330
18F60
100
AcDbDictionary
280
     1
281
     1
  3
ACAD_XREC_ROUNDTRIP
360
18FC9
  0
DICTIONARY
  5
18FCA
330
18F61
100
AcDbDictionary
280
     1
281
     1
  3
ACAD_XREC_ROUNDTRIP
360
18FCB
  0
DICTIONARY
  5
18FB3
330
D2D2
100
AcDbDictionary
280
     1
281
     1
  3
ACAD_XREC_ROUNDTRIP
360
18FB4
  0
DICTIONARY
  5
18FC0
330
18F5C
100
AcDbDictionary
280
     1
281
     1
  3
ACAD_XREC_ROUNDTRIP
360
18FC1
  0
DICTIONARY
  5
18FCC
330
18F62
100
AcDbDictionary
280
     1
281
     1
  3
ACAD_XREC_ROUNDTRIP
360
18FCD
  0
XRECORD
  5
18FBB
102
{ACAD_REACTORS
330
18E67
102
}
330
18E67
100
AcDbXrecord
280
     1
102
SHADEPLOT
 70
     0
102
SHADEPLOTRESLEVEL
 70
     2
102
SHADEPLOTCUSTOMDPI
 70
   300
  0
XRECORD
  5
18E68
102
{ACAD_REACTORS
330
18E67
102
}
330
18E67
100
AcDbXrecord
280
     1
310
28000000B40000008A00000001000800000000000861000000000000000000000001000000000000FFFFFF0000000000FFFFFF000000000000000000000000000000000000000000000000000000000000000000330000006600000099000000CC000000FF00000000330000333300006633000099330000CC330000FF3300
310
0000660000336600006666000099660000CC660000FF66000000990000339900006699000099990000CC990000FF99000000CC000033CC000066CC000099CC0000CCCC0000FFCC000000FF000033FF000066FF000099FF0000CCFF0000FFFF000000003300330033006600330099003300CC003300FF003300003333003333
310
33006633330099333300CC333300FF33330000663300336633006666330099663300CC663300FF66330000993300339933006699330099993300CC993300FF99330000CC330033CC330066CC330099CC3300CCCC3300FFCC330000FF330033FF330066FF330099FF3300CCFF3300FFFF330000006600330066006600660099
310
006600CC006600FF00660000336600333366006633660099336600CC336600FF33660000666600336666006666660099666600CC666600FF66660000996600339966006699660099996600CC996600FF99660000CC660033CC660066CC660099CC6600CCCC6600FFCC660000FF660033FF660066FF660099FF6600CCFF6600
310
FFFF660000009900330099006600990099009900CC009900FF00990000339900333399006633990099339900CC339900FF33990000669900336699006666990099669900CC669900FF66990000999900339999006699990099999900CC999900FF99990000CC990033CC990066CC990099CC9900CCCC9900FFCC990000FF99
310
0033FF990066FF990099FF9900CCFF9900FFFF99000000CC003300CC006600CC009900CC00CC00CC00FF00CC000033CC003333CC006633CC009933CC00CC33CC00FF33CC000066CC003366CC006666CC009966CC00CC66CC00FF66CC000099CC003399CC006699CC009999CC00CC99CC00FF99CC0000CCCC0033CCCC0066CC
310
CC0099CCCC00CCCCCC00FFCCCC0000FFCC0033FFCC0066FFCC0099FFCC00CCFFCC00FFFFCC000000FF003300FF006600FF009900FF00CC00FF00FF00FF000033FF003333FF006633FF009933FF00CC33FF00FF33FF000066FF003366FF006666FF009966FF00CC66FF00FF66FF000099FF003399FF006699FF009999FF00CC
310
99FF00FF99FF0000CCFF0033CCFF0066CCFF0099CCFF00CCCCFF00FFCCFF0000FFFF0033FFFF0066FFFF0099FFFF00CCFFFF00FFFFFF00000000000D0D0D001A1A1A00282828003535350043434300505050005D5D5D006B6B6B00787878008686860093939300A1A1A100AEAEAE00BBBBBB00C9C9C900D6D6D600E4E4E400
310
F1F1F100FFFFFF0000000000000000000000000000000000000000000000000000000000000000000000000000000000E2E2E2E2E2E2E2E2E2E2E2E2E2E2E2E2E2E2E2E2E2E2E2E2E2E2E2E2E2E2E2E2E2E2E2E2E2E2E2E2E2E2E2E2E2E2E2E2E2E2E2E2E2E2E2E2E2E2E2E2E2E2E2E2E2E2E2E2E2E2E2E2E2E2E2E2E2E2E2
310
E2E2E2E2E2E2E2E2E2E2E2E2E2E2E2E2E2E2E2E2E2E2E2E2E2E2E2E2E2E2E2E2E2E2E2E2E2E2E2E2E2E2E2E2E2E2E2E2E2E2E2E2E2E2E2E2E2E2E2E2E2E2E2E2E2E2E2E2E2E2E2E2E2E2E2E2E2E2E2E2E2E2E2E2E2E2E2E2E2E2E2E2E2E2E2E2E2E2E2E2EFE2F5F5F5F5F5F5F5F5F5F5F5F5F5F5F5F5F5F5F5F5F5F5F5F5F5
310
F5F5F5F5F5F5F5F5F5F5F5F5F5F5F5F5F5F5F5F5F5F5F5F5F5F5F5F5F5F5F5F5F5F5F5F5F5F5F5F5F5F5F5F5F5F5F5F5F5F5F5F5F5F5F5F5F5F5F5F5F5F5F5F5F5F5F5F5F5F5F5F5F5F5F5F5F5F5F5F5F5F5F5F5F5F5F5F5F5F5F5F5F5F5F5F5F5F5F5F5F5F5F5F5F5F5F5F5F5F5F5F5F5F5F5F5F5F5F5F5F5F5F5F5F5F5F5
310
F5F5F5F5F5F5F5F5F5F5F5F5F5F5F5F5F5F5F5F5F5F5F5F5E2E2EFE2F5E2E2E2E2E2E2E2E2F5F5F5F5F5F5F5F5F5E2E2E2E2E2E2E2E2E2E2E2E2E2E2E2E2F5F5F5F5F5F5F5F5F5E2E2E2E2E2E2E2E2E2E2E2E2E2E2E2E2F5F5F5F5F5F5F5F5F5E2E2E2E2E2E2E2E2E2E2E2E2E2E2E2E2F5F5F5F5F5F5F5F5E2E2E2E2E2E2E2
310
E2E2E2E2E2E2E2E2E2F5F5F5F5F5F5F5F5F5E2E2E2E2E2E2E2E2E2E2E2E2E2E2E2E2F5F5F5F5F5F5F5F5F5E2E2E2E2E2E2E2E2E2E2E2E2E2E2E2E2F5F5F5F5F5F5F5F5F5E2E2E2E2E2E2E2E2F5E2E2EFE2F5E2F5F5F5F5F5F5F5F5F5F5F5F5F5F5F5F5F5F5F5F5F5F5F5F5F5F5F5F5F5F5F5F5F5F5F5F5F5F5F5F5F5F5F5F5
310
F5F5F5F5F5F5F5F5F5F5F5F5F5F5F5F5F5F5F5F5F5F5F5F5F5F5F5F5F5F5F5F5F5F5F5F5F5F5F5F5F5F5F5F5F5F5F5F5F5F5F5F5F5F5F5F5F5F5F5F5F5F5F5F5F5F5F5F5F5F5F5F5F5F5F5F5F5F5F5F5F5F5F5F5F5F5F5F5F5F5F5F5F5F5F5F5F5F5F5F5F5F5F5F5F5F5F5F5F5F5F5F5F5F5F5F5F5F5F5F5F5F5F5F5F5F5F5
310
F5E2F5E2E2EFE2F5E2F5F5F5F5F5F5F5F5F5F5F5F5F5F5F5F5F5F5F5F5F5F5F5F5F5F5F5F5F5F5F5F5F5F5F5F5F5F5F5F5F5F5F5F5F5F5F5F5F5F5F5F5F5F5F5F5F5F5F5F5F5F5F5F5F5F5F5F5F5F5F5F5F5F5F5F5F5F5F5F5F5F5F5F5F5F5F5F5F5F5F5F5F5F5F5F5F5F5F5F5F5F5F5F5F5F5F5F5F5F5F5F5F5F5F5F5F5F5
310
F5F5F5F5F5F5F5F5F5F5F5F5F5F5F5F5F5F5F5F5F5F5F5F5F5F5F5F5F5F5F5F5F5F5F5F5F5F5F5F5F5F5F5F5F5F5F5F5F5F5F5F5F5F5E2F5E2E2EFE2F5E2F5F5F5F5F5F5F5F5F5F5F5F5F5F5F5F5F5F5F5F5F5F5F5F5F5F5F5F5F5F5F5F5F5F5F5F5F5F5F5F5F5F5F5F5F5F5F5F5F5F5F5F5F5F5F5F5F5F5F5F5F5F5F5F5F5
310
F5F5F5F5F5F5F5F5F5F5F5F5F5F5F5F5F5F5F5F5F5F5F5F5F5F5F5F5F5F5F5F5F5F5F5F5F5F5F5F5F5F5F5F5F5F5F5F5F5F5F5F5F5F5F5F5F5F5F5F5F5F5F5F5F5F5F5F5F5F5F5F5F5F5F5F5F5F5F5F5F5F5F5F5F5F5F5F5F5F5F5F5F5F5F5F5F5F5F5F5F5F5F5F5F5F5F5E2F5E2E2EFE2F5E2F5F5F5F5F5F5F5F5F5F5F5F5
310
F5F5F5F5F5F5F5F5F5F5F5F5F5F5F5F5F5F5F5F5F5F5F5F5F5F5F5F5F5F5F5F5F5F5F5F5F5F5F5F5F5F5F5F5F5F5F5F5F5F5F5F5F5F5F5F5F5F5F5F5F5F5F5F5F5F5F5F5F5F5F5F5F5F5F5F5F5F5F5F5F5F5F5F5F5F5F5F5F5F5F5F5F5F5F5F5F5F5F5F5F5F5F5F5F5F5F5F5F5F5F5F5F5F5F5F5F5F5F5F5F5F5F5F5F5F5F5
310
F5F5F5F5F5F5F5F5F5F5F5F5F5F5F5F5F5F5F5F5F5F5F5F5F5F5F5F5F5F5F5F5F5E2F5E2E2EFE2F5E2F5F5F5F5F5F5F5F5F5F5F5F5F5F5F5F5F5F5F5F5F5F5F5F5F5F5F5F5F5F5F5F5F5F5F5F5F5F5F5F5F5F5F5F5F5F5F5F5F5F5F5F5F5F5F5F5F5F5F5F5F5F5F5F5F5F5F5F5F5F5F5F5F5F5F5F5F5F5F5F5F5F5F5F5F5F5
310
F5F5F5F5F5F5F5F5F5F5F5F5F5F5F5F5F5F5F5F5F5F5F5F5F5F5F5F5F5F5F5F5F5F5F5F5F5F5F5F5F5F5F5F5F5F5F5F5F5F5F5F5F5F5F5F5F5F5F5F5F5F5F5F5F5F5F5F5F5F5F5F5F5F5F5F5F5F5F5F5F5F5F5F5F5F5E2F5E2E2EFE2F5E2F5F5F5F5F5F5F5F5F5F5F5F5F5F5F5F5F5F5F5F5F5F5F5F5F5F5F5F5F5F5F5F5F5
310
F5F5F5F5F5F5F5F5F5F5F5F5F5F5F5F5F5F5F5F5F5F5F5F5F5F5F5F5F5F5F5F5F5F5F5F5F5F5F5F5F5F5F5F5F5F5F5F5F5F5F5F5F5F5F5F5F5F5F5F5F5F5F5F5F5F5F5F5F5F5F5F5F5F5F5F5F5F5F5F5F5F5F5F5F5F5F5F5F5F5F5F5F5F5F5F5F5F5F5F5F5F5F5F5F5F5F5F5F5F5F5F5F5F5F5F5F5F5F5F5F5F5F5F5F5F5F5
310
F5F5F5F5F5F5F5F5F5F5F5F5E2F5E2E2EFE2F5E2F5F5F5F5F5F5F5F5F5F5F5F5F5F5F5F5F5F5F5F5F5F5F5F5F5F5F5F5F5F5F5F5F5F5F5F5F5F5F5F5F5F5F5F5F5F5F5F5F5F5F5F5F5F5F5F5F5F5F5F5F5F5F5F5F5F5F5F5F5F5F5F5F5F5F5F5F5F5F5F5F5F5F5F5F5F5F5F5F5F5F5F5F5F5F5F5F5F5F5F5F5F5F5F5F5F5F5
310
F5F5F5F5F5F5F5F5F5F5F5F5F5F5F5F5F5F5F5F5F5F5F5F5F5F5F5F5F5F5F5F5F5F5F5F5F5F5F5F5F5F5F5F5F5F5F5F5F5F5F5F5F5F5F5F5F5F5F5F5F5F5F5F5F5E2F5E2E2EFE2F5E2F5F5F5F5F5F5F5F5F5F5F5F5F5F5F5F5F5F5F5F5F5F5F5F5F5F5F5F5F5F5F5F5F5F5F5F5F5F5F5F5F5F5F5F5F5F5F5F5F5F5F5F5F5F5
310
F5F5F5F5F5F5F5F5F5F5F5F5F5F5F5F5F5F5F5F5F5F5F5F5F5F5F5F5F5F5F5F5F5F5F5F5F5F5F5F5F5F5F5F5F5F5F5F5F5F5F5F5F5F5F5F5F5F5F5F5F5F5F5F5F5F5F5F5F5F5F5F5F5F5F5F5F5F5F5F5F5F5F5F5F5F5F5F5F5F5F5F5F5F5F5F5F5F5F5F5F5F5F5F5F5F5F5F5F5F5F5F5F5F5F5F5F5F5E2F5E2E2EFE2F5F5F5
310
F5F5F5F5F5F5F5F5F5F5F5F5F5F5F5F5F5F5F5F5F5F5F5F5F5F5F5F5F5F5F5F5F5F5F5F5F5F5F5F5F5F5F5F5F5F5F5F5F5F5F5F5F5F5F5F5F5F5F5F5F5F5F5F5F5F5F5F5F5F5F5F5F5F5F5F5F5F5F5F5F5F5F5F5F5F5F5F5F5F5F5F5F5F5F5F5F5F5F5F5F5F5F5F5F5F5F5F5F5F5F5F5F5F5F5F5F5F5F5F5F5F5F5F5F5F5F5
310
F5F5F5F5F5F5F5F5F5F5F5F5F5F5F5F5F5F5F5F5F5F5F5F5F5F5F5F5F5F5F5F5F5F5F5F5F5F5F5F5F5F5F5F5F5F5E2E2EFE2F5F5F5F5F5F5F5F5F5F5F5F5F5F5F5F5F5F5F5F5F5F5F5F5F5F5F5F5F5F5F5F5F5F5F5F5F5F5F5F5F5F5F5F5F5F5F5F5F5F5F5F5F5F5F5F5F5F5F5F5F5F5F5F5F5F5F5F5F5F5F5F5F5F5F5F5F5
310
F5F5F5F5F5F5F5F5F5F5F5F5F5F5F5F5F5F5F5F5F5F5F5F5F5F5F5F5F5F5F5F5F5F5F5F5F5F5F5F5F5F5F5F5F5F5F5F5F5F5F5F5F5F5F5F5F5F5F5F5F5F5F5F5F5F5F5F5F5F5F5F5F5F5F5F5F5F5F5F5F5F5F5F5F5F5F5F5F5F5F5F5F5F5F5F5F5F5F5E2E2EFE2F5F5F5F5F5F5F5F5F5F5F5F5F5F5F5F5F5F5F5F5F5F5F5F5
310
F5F5F5F5F5F5F5F5F5F5F5F5F5F5F5F5F5F5F5F5F5F5F5F5F5F5F5F5F5F5F5F5F5F5F5F5F5F5F5F5F5F5F5F5F5F5F5F5F5F5F5F5F5F5F5F5F5F5F5F5F5F5F5F5F5F5F5F5F5F5F5F5F5F5F5F5F5F5F5F5F5F5F5F5F5F5F5F5F5F5F5F5F5F5F5F5F5F5F5F5F5F5F5F5F5F5F5F5F5F5F5F5F5F5F5F5F5F5F5F5F5F5F5F5F5F5F5
310
F5F5F5F5F5F5F5F5F5F5F5F5F5F5F5F5F5F5F5F5F5F5F5F5F5E2E2EFE2F5F5F5F5F5F5F5F5F5F5F5F5F5F5F5F5F5F5F5F5F5F5F5F5F5F5F5F5F5F5F5F5F5F5F5F5F5F5F5F5F5F5F5F5F5F5F5F5F5F5F5F5F5F5F5F5F5F5F5F5F5F5F5F5F5F5F5F5F5F5F5F5F5F5F5F5F5F5F5F5F5F5F5F5F5F5F5F5F5F5F5F5F5F5F5F5F5F5
310
F5F5F5F5F5F5F5F5F5F5F5F5F5F5F5F5F5F5F5F5F5F5F5F5F5F5F5F5F5F5F5F5F5F5F5F5F5F5F5F5F5F5F5F5F5F5F5F5F5F5F5F5F5F5F5F5F5F5F5F5F5F5F5F5F5F5F5F5F5F5F5F5F5F5F5F5F5F5E2E2EFE2F5F5F5F5F5F5F5F5F5F5F5F5F5F5F5F5F5F5F5F5F5F5F5F5F5F5F5F5F5F5F5F5F5F5F5F5F5F5F5F5F5F5F5F5F5
310
F5F5F5F5F5F5F5F5F5F5F5F5F5F5F5F5F5F5F5F5F5F5F5F5F5F5F5F5F5F5F5F5F5F5F5F5F5F5F5F5F5F5F5F5F5F5F5F5F5F5F5F5F5F5F5F5F5F5F5F5F5F5F5F5F5F5F5F5F5F5F5F5F5F5F5F5F5F5F5F5F5F5F5F5F5F5F5F5F5F5F5F5F5F5F5F5F5F5F5F5F5F5F5F5F5F5F5F5F5F5F5F5F5F5F5F5F5F5F5F5F5F5F5F5F5F5F5
310
F5F5F5F5E2E2EFE2F5F5F5F5F5F5F5F5F5F5F5F5F5F5F5F5F5F5E2E2E2E2E2E2E2E2E2E2E2E2E2E2E2E2E2E2E2E2E2E2E2E2E2E2E2E2E2E2E2E2E2E2E2E2E2E2E2E2E2E2E2E2E2E2E2E2E2E2E2E2E2E2E2E2E2E2E2E2E2E2E2E2E2E2E2E2E2E2E2E2E2E2E2E2E2E2E2E2E2E2E2E2E2E2E2E2E2E2E2E2E2E2E2E2E2E2E2E2E2
310
E2E2E2E2E2E2E2E2E2E2E2E2E2E2E2E2E2E2E2E2E2E2E2E2E2E2E2E2E2E2E2E2E2E2E2E2E2E2E2F5F5F5F5F5F5F5F5F5F5F5F5F5F5F5F5F5F5E2E2EFE2F5F5F5F5F5F5F5F5F5F5F5F5F5F5F5F5F5F5E2F5F5F5F5F5F5F5F5F5F5F5F5F5F5F5F5F5F5F5F5F5F5F5F5F5F5F5F5F5F5F5F5F5F5F5F5F5F5F5F5F5F5F5F5F5F5F5
310
F5F5F5F5F5F5F5F5F5F5F5F5F5F5F5F5F5F5F5F5F5F5F5F5F5F5F5F5F5F5F5F5F5F5F5F5F5F5F5F5F5F5F5F5F5F5F5F5F5F5F5F5F5F5F5F5F5F5F5F5F5F5F5F5F5F5F5F5F5F5F5F5F5F5F5F5F5F5F5F5F5F5F5F5F5F5F5F5F5F5F5E2F5F5F5F5F5F5F5F5F5F5F5F5F5F5F5F5F5F5E2E2EFE2F5F5F5F5F5F5F5F5F5F5F5F5F5
310
F5F5F5F5F5E2F5F5F5F5F5F5F5F5F5F5F5F5F5F5F5F5F5F5F5F5F5F5F5F5F5F5F5F5F5F5F5F5F5F5F5F5F5F5F5F5F5F5F5F5F5F5F5F5F5F5F5F5F5F5F5F5F5F5F5F5F5F5F5F5F5F5F5F5F5F5F5F5F5F5F5F5F5F5F5F5F5F5F5F5F5F5F5F5F5F5F5F5F5F5F5F5F5F5F5F5F5F5F5F5F5F5F5F5F5F5F5F5F5F5F5F5F5F5F5F5F5
310
F5F5F5F5F5F5F5F5F5F5F5F5F5F5F5F5F5E2F5F5F5F5F5F5F5F5F5F5F5F5F5F5F5F5F5F5E2E2EFE2F5F5F5F5F5F5F5F5F5F5F5F5F5F5F5F5F5F5E2F5F5F5F5F5F5F5F5F5F5F5F5F5F5F5F5F5F5F5F5F5F5F5F5F5F5F5F5F5F5F5F5F5F5F5F5F5F5F5F5F5F5F5F5F5F5F5F5F5F5F5F5F5F5F5F5F5F5F5F5F5F5F5F5F5F5F5F5
310
F5F5F5F5F5F5F5F5F5F5F5F5F5F5F5F5F5F5F5F5F5F5F5F5F5F5F5F5F5F5F5F5F5F5F5F5F5F5F5F5F5F5F5F5F5F5F5F5F5F5F5F5F5F5F5F5F5F5F5F5F5F5F5F5F5F5F5F5F5F5E2F5F5F5F5F5F5F5F5F5F5F5F5F5F5F5F5F5F5E2E2EFE2F5F5F5F5F5F5F5F5F5F5F5F5F5F5F5F5F5F5E2F5F5F5F5F5F5F5F5F5F5F5F5F5F5F5
310
F5F5F5F5F5F5F5F5F5F5F5F5F5F5F5F5F5F5F5F5F5F5F5F5F5F5F5F5F5F5F5F5F5F5F5F5F5F5F5F5F5F5F5F5F5F5F5F5F5F5F5F5F5F5F5F5F5F5F5F5F5F5F5F5F5F5F5F5F5F5F5F5F5F5F5F5F5F5F5F5F5F5F5F5F5F5F5F5F5F5F5F5F5F5F5F5F5F5F5F5F5F5F5F5F5F5F5F5F5F5F5F5F5F5F5F5F5F5F5F5F5F5F5E2F5F5F5
310
F5F5F5F5F5F5F5F5F5F5F5F5F5F5F5E2E2EFE2F5E2F5F5F5F5F5F5F5F5F5F5F5F5F5F5F5F5E2F5F5F5F5F5F5F5F5F5F5F5F5F5F5F5F5F5F5F5F5F5F5F5F5F5F5F5F5F5F5F5F5F5F5F5F5F5F5F5F5F5F5F5F5F5F5F5F5F5F5F5F5F5F5F5F5F5F5F5F5F5F5F5F5F5F5F5F5F5F5F5F5F5F5F5F5F5F5F5F5F5F5F5F5F5F5F5F5F5
310
F5F5F5F5F5F5F5F5F5F5F5F5F5F5F5F5F5F5F5F5F5F5F5F5F5F5F5F5F5F5F5F5F5F5F5F5F5F5F5F5F5F5F5F5F5F5F5F5F5E2F5F5F5F5F5F5F5F5F5F5F5F5F5F5F5F5E2F5E2E2EFE2F5E2F5F5F5F5F5F5F5F5F5F5F5F5F5F5F5F5E2F5F5F5F5F5F5F5F5F5E2E2E2E2E2E2E2E2E2E2E2E2E2E2E2E2E2E2E2E2E2E2E2E2E2E2E2
310
E2E2E2E2E2E2E2E2E2E2E2E2E2E2E2E2E2E2E2E2E2E2E2E2E2E2E2E2E2E2E2E2E2E2E2E2E2E2E2E2F5F5F5F5F5F5F5F5F5F5F5F5F5F5F5F5F5F5F5F5F5F5F5F5F5F5F5F5F5F5F5F5F5F5F5F5F5F5F5F5F5F5F5F5F5F5F5F5F5F5F5F5F5F5F5F5F5F5F5F5F5F5E2F5F5F5F5F5F5F5F5F5F5F5F5F5F5F5F5E2F5E2E2EFE2F5E2
310
F5F5F5F5F5F5F5F5F5F5F5F5F5F5F5F5E2F5F5F5F5F5F5F5F5F5E2F5F5E2F5F5F5F5F5F5F5F5F5F5F5F5F5F5F5F5F5F5F5F5F5F5F5F5F5F5F5F5F5F5F5F5F5F5F5F5F5F5F5F5F5F5F5F5F5F5F5F5F5F5F5F5F5F5F5F5F5F5F5F5F5F5E2F5F5F5F5F5F5F5F5F5F5F5F5F5F5F5F5F5F5F5F5F5F5F5F5F5F5F5F5F5F5F5F5F5F5
310
F5F5F5F5F5F5F5F5F5F5F5F5F5F5F5F5F5F5F5F5F5F5F5F5F5F5F5F5E2F5F5F5F5F5F5F5F5F5F5F5F5F5F5F5F5E2F5E2E2EFE2F5E2F5F5F5F5F5F5F5F5F5F5F5F5F5F5F5F5E2F5F5F5F5F5F5F5F5E2F5F5E2F5F5F5F5F5F5F5F5F5F5F5F5F5F5F5F5F5F5F5F5F5F5F5F5F5F5F5F5F5F5F5F5F5F5F5F5F5F5F5F5F5F5F5F5F5
310
F5F5F5F5F5F5F5F5F5F5F5F5F5F5F5F5F5F5E2F5F5F5F5F5F5F5F5F5F5F5F5F5F5F5F5F5F5F5F5F5F5F5F5F5F5F5F5F5F5F5F5F5F5F5F5F5F5F5F5F5F5F5F5F5F5F5F5F5F5F5F5F5F5F5F5F5F5F5F5F5F5E2F5F5F5F5F5F5F5F5F5F5F5F5F5F5F5F5E2F5E2E2EFE2F5E2F5F5F5F5F5F5F5F5F5F5F5F5F5F5F5F5E2F5F5F5F5
310
F5F5F5F5E2F5F5E2F5F5F5F5F5F5F5F5F5F5F5F5F5F5F5F5F5F5F5F5F5F5F5F5F5F5F5F5F5F5F5F5F5F5F5F5F5F5F5F5F5F5F5F5F5F5F5F5F5F5F5F5F5F5F5F5F5F5F5F5F5F5F5F5E2F5F5F5F5F5F5F5F5F5F5F5F5F5F5F5F5F5F5F5F5F5F5F5F5F5F5F5F5F5F5F5F5F5F5F5F5F5F5F5F5F5F5F5F5F5F5F5F5F5F5F5F5F5F5
310
F5F5F5F5F5F5F5E2F5F5F5F5F5F5F5F5F5F5F5F5F5F5F5F5E2F5E2E2EFE2F5E2F5F5F5F5F5F5F5F5F5F5F5F5F5F5F5F5E2F5F5F5F5F5F5F5F5E2F5E2F5F5F5F5F5F5F5F5F5F5F5F5F5F5F5F5F5F5F5F5F5F5F5F5F5F5F5F5F5F5F5F5F5F5F5F5F5F5F5F5F5F5F5F5F5F5F5F5F5F5F5F5F5F5F5F5F5F5F5F5F5F5F5F5F5E2F5
310
F5F5F5F5F5F5F5F5F5F5F5F5F5F5F5F5F5F5F5F5F5F5F5F5F5F5F5F5F5F5F5F5F5F5F5F5F5F5F5F5F5F5F5F5F5F5F5F5F5F5F5F5F5F5F5F5F5F5F5F5E2F5F5F5F5F5F5F5F5F5F5F5F5F5F5F5F5E2F5E2E2EFE2F5E2F5F5F5F5F5F5F5F5F5F5F5F5F5F5F5F5E2F5F5F5F5F5F5F5E2F5F5E2F5F5F5F5F5F5F5F5F5F5F5F5F5F5
310
F5F5F5F5F5F5F5F5F5F5F5F5F5F5F5F5F5F5F5F5F5F5F5F5F5F5F5F5F5F5F5F5F5F5F5F5F5F5F5F5F5F5F5F5F5F5F5F5F5F5F5E2F5F5F5F5F5F5F5F5F5F5F5F5F5F5F5F5F5F5F5F5F5F5F5F5F5F5F5F5F5F5F5F5F5F5F5F5F5F5F5F5F5F5F5F5F5F5F5F5F5F5F5F5F5F5F5F5F5F5F5F5F5E2F5F5F5F5F5F5F5F5F5F5F5F5F5
310
F5F5F5E2F5E2E2EFE2F5E2F5F5F5F5F5F5F5F5F5F5F5F5F5F5F5F5E2F5F5F5F5F5F5F5E2F5E2F5F5F5F5F5F5F5F5F5F5F5F5F5F5F5F5F5F5F5F5F5F5F5F5F5F5F5F5F5F5F5F5F5F5F5F5F5F5F5F5F5F5F5F5F5F5F5F5F5F5F5F5F5F5F5F5F5F5F5F5F5F5F5F5F5F5E2F5F5F5F5F5F5F5F5F5F5F5F5F5F5F5F5F5F5F5F5F5F5
310
F5F5F5F5F5F5F5F5F5F5F5F5F5F5F5F5F5F5F5F5F5F5F5F5F5F5F5F5F5F5F5F5F5F5F5F5F5F5F5E2F5F5F5F5F5F5F5F5F5F5F5F5F5F5F5F5E2F5E2E2EFE2F5E2F5F5F5F5F5F5F5F5F5F5F5F5F5F5F5F5E2F5F5F5F5F5F5F5E2F5E2F5F5F5F5F5F5F5F5F5F5F5F5F5F5F5F5F5F5F5F5F5F5F5F5F5F5F5F5F5F5F5F5F5F5F5F5
310
F5F5F5F5F5F5F5F5F5F5F5F5F5F5F5F5F5F5F5F5F5F5F5F5F5F5F5F5F5F5E2F5F5F5F5F5F5F5F5F5F5F5F5F5F5F5F5F5F5F5F5F5F5F5F5F5F5F5F5F5F5F5F5F5F5F5F5F5F5F5F5F5F5F5F5F5F5F5F5F5F5F5F5F5F5F5F5F5F5F5F5F5E2F5F5F5F5F5F5F5F5F5F5F5F5F5F5F5F5E2F5E2E2EFE2F5E2F5F5F5F5F5F5F5F5F5F5
310
F5F5F5F5F5F5E2F5F5F5F5F5F5E2F5E2F5F5F5F5F5F5F5F5F5F5F5F5F5F5F5F5F5F5F5F5F5F5F5F5F5F5F5F5F5F5F5F5F5F5F5F5F5F5F5F5F5F5F5F5F5F5F5F5F5F5F5F5F5F5F5F5F5F5F5F5F5F5F5F5F5F5F5F5E2F5F5F5F5F5F5F5F5F5F5F5F5F5F5F5F5F5F5F5F5F5F5F5F5F5F5F5F5F5F5F5F5F5F5F5F5F5F5F5F5F5F5
310
F5F5F5F5F5F5F5F5F5F5F5F5F5F5F5F5F5F5E2F5F5F5F5F5F5F5F5F5F5F5F5F5F5F5F5E2F5E2E2EFE2F5E2F5F5F5F5F5F5F5F5F5F5F5F5F5F5F5F5E2F5F5F5F5F5F5E2F5E2F5F5F5F5F5F5F5F5F5F5F5F5F5F5F5F5F5F5F5F5F5F5F5F5F5F5F5F5F5F5F5F5F5F5F5F5F5F5F5F5F5F5F5F5F5F5F5F5F5F5F5F5F5F5F5F5F5F5
310
F5F5F5F5F5F5F5F5F5F5E2F5F5F5F5F5F5F5F5F5F5F5F5F5F5F5F5F5F5F5F5F5F5F5F5F5F5F5F5F5F5F5F5F5F5F5F5F5F5F5F5F5F5F5F5F5F5F5F5F5F5F5F5F5F5F5F5F5F5F5F5E2F5F5F5F5F5F5F5F5F5F5F5F5F5F5F5F5E2F5E2E2EFE2F5E2F5F5F5F5F5F5F5F5F5F5F5F5F5F5F5F5E2F5F5F5F5F5F5E2E2F5F5F5F5F5F5
310
F5F5F5F5F5F5F5F5F5F5F5F5F5F5F5F5F5F5F5F5F5F5F5F5F5F5F5F5F5F5F5F5F5F5F5F5F5F5F5F5F5F5F5F5F5F5F5F5F5F5F5F5F5F5F5F5F5F5F5F5F5F5F5E2F5F5F5F5F5F5F5F5F5F5F5F5F5F5F5F5F5F5F5F5F5F5F5F5F5F5F5F5F5F5F5F5F5F5F5F5F5F5F5F5F5F5F5F5F5F5F5F5F5F5F5F5F5F5F5F5F5F5F5F5E2F5F5
310
F5F5F5F5F5F5F5F5F5F5F5F5F5F5E2F5E2E2EFE2F5E2F5F5F5F5F5F5F5F5F5F5F5F5F5F5F5F5E2F5F5F5F5F5E2F5E2F5F5F5F5F5F5F5F5F5F5F5F5F5F5F5F5F5F5F5F5F5F5F5F5F5F5F5F5F5F5F5F5F5F5F5F5F5F5F5F5F5F5F5F5F5F5F5F5F5F5F5F5F5F5F5F5F5F5F5F5F5F5F5F5F5F5F5F5F5E2F5F5F5F5F5F5F5F5F5F5
310
F5F5F5F5F5F5F5F5F5F5F5F5F5F5F5F5F5F5F5F5F5F5F5F5F5F5F5F5F5F5F5F5F5F5F5F5F5F5F5F5F5F5F5F5F5F5F5F5F5F5E2F5F5F5F5F5F5F5F5F5F5F5F5F5F5F5F5E2F5E2E2EFE2F5E2F5F5F5F5F5F5F5F5F5F5F5F5F5F5F5F5E2F5F5F5F5F5E2E2F5F5F5F5F5F5F5F5F5F5F5F5F5F5F5F5F5F5F5F5F5F5F5F5F5F5F5F5
310
F5F5F5F5F5F5F5F5F5F5F5F5F5F5F5F5F5F5F5F5F5F5F5F5F5F5F5F5F5F5F5F5F5F5F5F5F5F5F5F5F5F5E2F5F5F5F5F5F5F5F5F5F5F5F5F5F5F5F5F5F5F5F5F5F5F5F5F5F5F5F5F5F5F5F5F5F5F5F5F5F5F5F5F5F5F5F5F5F5F5F5F5F5F5F5F5F5F5F5F5F5F5F5E2F5F5F5F5F5F5F5F5F5F5F5F5F5F5F5F5E2F5E2E2EFE2F5
310
E2F5F5F5F5F5F5F5F5F5F5F5F5F5F5F5F5E2F5F5F5F5F5E2E2F5F5F5F5F5F5F5F5F5F5F5F5F5F5F5F5F5F5F5F5F5F5F5F5F5F5F5F5F5F5F5F5F5F5F5F5F5F5F5F5F5F5F5F5F5F5F5F5F5F5F5F5F5F5F5F5F5F5F5F5F5F5F5F5F5F5F5F5F5F5F5E2F5F5F5F5F5F5F5F5F5F5F5F5F5F5F5F5F5F5F5F5F5F5F5F5F5F5F5F5F5F5
310
F5F5F5F5F5F5F5F5F5F5F5F5F5F5F5F5F5F5F5F5F5F5F5F5F5F5F5F5F5E2F5F5F5F5F5F5F5F5F5F5F5F5F5F5F5F5E2F5E2E2EFE2F5E2F5F5F5F5F5F5F5F5F5F5F5F5F5F5F5F5E2F5F5F5F5E2F5E2F5F5F5F5F5F5F5F5F5F5F5F5F5F5F5F5F5F5F5F5F5F5F5F5F5F5F5F5F5F5F5F5F5F5F5F5F5F5F5F5F5F5F5F5F5F5F5F5F5
310
F5F5F5F5F5F5F5F5F5F5F5F5F5F5F5F5F5F5F5F5F5F5E2F5F5F5F5F5F5F5F5F5F5F5F5F5F5F5F5F5F5F5F5F5F5F5F5F5F5F5F5F5F5F5F5F5F5F5F5F5F5F5F5F5F5F5F5F5F5F5F5F5F5F5F5F5F5F5F5F5F5F5E2F5F5F5F5F5F5F5F5F5F5F5F5F5F5F5F5E2F5E2E2EFE2F5E2F5F5F5F5F5F5F5F5F5F5F5F5F5F5F5F5E2F5F5F5
310
F5E2E2F5F5F5F5F5F5F5F5F5F5F5F5F5F5F5F5F5F5F5F5F5F5F5F5F5F5F5F5F5F5F5F5F5F5F5F5F5F5F5F5F5F5F5F5F5F5F5F5F5F5F5F5F5F5F5F5F5F5F5F5F5F5F5F5F5F5F5F5F5F5F5F5E2F5F5F5F5F5F5F5F5F5F5F5F5F5F5F5F5F5F5F5F5F5F5F5F5F5F5F5F5F5F5F5F5F5F5F5F5F5F5F5F5F5F5F5F5F5F5F5F5F5F5F5
310
F5F5F5F5F5F5F5F5E2F5F5F5F5F5F5F5F5F5F5F5F5F5F5F5F5E2F5E2E2EFE2F5F5F5F5F5F5F5F5F5F5F5F5F5F5F5F5F5F5E2F5F5F5F5E2E2F5F5F5F5F5F5F5F5F5F5F5F5F5F5F5F5F5F5F5F5F5F5F5F5F5F5F5F5F5F5F5F5F5F5F5F5F5F5F5F5F5F5F5F5F5F5F5F5F5F5F5F5F5F5F5F5F5F5F5F5F5F5F5F5F5F5F5F5F5F5F5
310
F5E2F5F5F5F5F5F5F5F5F5F5F5F5F5F5F5F5F5F5F5F5F5F5F5F5F5F5F5F5F5F5F5F5F5F5F5F5F5F5F5F5F5F5F5F5F5F5F5F5F5F5F5F5F5F5F5F5F5F5F5E2F5F5F5F5F5F5F5F5F5F5F5F5F5F5F5F5F5F5E2E2EFE2F5F5F5F5F5F5F5F5F5F5F5F5F5F5F5F5F5F5E2F5F5F5E2E2F5F5F5F5F5F5F5F5F5F5F5F5F5F5F5F5F5F5F5
310
F5F5F5F5F5F5F5F5F5F5F5F5F5F5F5F5F5F5F5F5F5F5F5F5F5F5F5F5F5F5F5F5F5F5F5F5F5F5F5F5F5F5F5F5F5F5F5F5F5F5F5F5F5F5F5E2F5F5F5F5F5F5F5F5F5F5F5F5F5F5F5F5F5F5F5F5F5F5F5F5F5F5F5F5F5F5F5F5F5F5F5F5F5F5F5F5F5F5F5F5F5F5F5F5F5F5F5F5F5F5F5F5F5F5E2F5F5F5F5F5F5F5F5F5F5F5F5
310
F5F5F5F5F5F5E2E2EFE2F5F5F5F5F5F5F5F5F5F5F5F5F5F5F5F5F5F5E2F5F5F5E2E2F5F5F5F5F5F5F5F5F5F5F5F5F5F5F5F5F5F5F5F5F5F5F5F5F5F5F5F5F5F5F5F5F5F5F5F5F5F5F5F5F5F5F5F5F5F5F5F5F5F5F5F5F5F5F5F5F5F5F5F5F5F5F5F5F5F5F5F5F5F5F5F5F5F5E2F5F5F5F5F5F5F5F5F5F5F5F5F5F5F5F5F5F5
310
F5F5F5F5F5F5F5F5F5F5F5F5F5F5F5F5F5F5F5F5F5F5F5F5F5F5F5F5F5F5F5F5F5F5F5F5F5F5F5F5E2F5F5F5F5F5F5F5F5F5F5F5F5F5F5F5F5F5F5E2E2EFE2F5F5F5F5F5F5F5F5F5F5F5F5F5F5F5F5F5F5E2F5F5F5E2F5F5F5F5F5F5F5F5F5F5F5F5F5F5F5F5F5F5F5F5F5F5F5F5F5F5F5F5F5F5F5F5F5F5F5F5F5F5F5F5F5
310
F5F5F5F5F5F5F5F5F5F5F5F5F5F5F5F5F5F5F5F5F5F5F5F5F5F5F5F5F5F5F5F5F5F5E2F5F5F5F5F5F5F5F5F5F5F5F5F5F5F5F5F5F5F5F5F5F5F5F5F5F5F5F5F5F5F5F5F5F5F5F5F5F5F5F5F5F5F5F5F5F5F5F5F5F5F5F5F5F5F5F5F5F5E2F5F5F5F5F5F5F5F5F5F5F5F5F5F5F5F5F5F5E2E2EFE2F5F5F5F5F5F5F5F5F5F5F5
310
F5F5F5F5F5F5F5E2F5F5E2E2F5F5F5F5F5F5F5F5F5F5F5F5F5F5F5F5F5F5F5F5F5F5F5F5F5F5F5F5F5F5F5F5F5F5F5F5F5F5F5F5F5F5F5F5F5F5F5F5F5F5F5F5F5F5F5F5F5F5F5F5F5F5F5F5F5F5F5F5F5F5F5F5F5F5F5E2F5F5F5F5F5F5F5F5F5F5F5F5F5F5F5F5F5F5F5F5F5F5F5F5F5F5F5F5F5F5F5F5F5F5F5F5F5F5F5
310
F5F5F5F5F5F5F5F5F5F5F5F5F5F5F5F5F5F5F5E2F5F5F5F5F5F5F5F5F5F5F5F5F5F5F5F5F5F5E2E2EFE2F5F5F5F5F5F5F5F5F5F5F5F5F5F5F5F5F5F5E2F5F5E2F5F5F5F5F5F5F5F5F5F5F5F5F5F5F5F5F5F5F5F5F5F5F5F5F5F5F5F5F5F5F5F5F5F5F5F5F5F5F5F5F5F5F5F5F5F5F5F5F5F5F5F5F5F5F5F5F5F5F5F5F5F5F5
310
F5F5F5F5F5F5F5F5F5F5F5F5F5E2F5F5F5F5F5F5F5F5F5F5F5F5F5F5F5F5F5F5F5F5F5F5F5F5F5F5F5F5F5F5F5F5F5F5F5F5F5F5F5F5F5F5F5F5F5F5F5F5F5F5F5F5F5F5F5F5F5F5E2F5F5F5F5F5F5F5F5F5F5F5F5F5F5F5F5F5F5E2E2EFE2F5F5F5F5F5F5F5F5F5F5F5F5F5F5F5F5F5F5E2F5F5E2F5F5F5F5F5F5F5F5F5F5
310
F5F5F5F5F5F5F5F5F5F5F5F5F5F5F5F5F5F5F5F5F5F5F5F5F5F5F5F5F5F5F5F5F5F5F5F5F5F5F5F5F5F5F5F5F5F5F5F5F5F5F5F5F5F5F5F5F5F5F5F5F5F5F5F5F5F5F5E2F5F5F5F5F5F5F5F5F5F5F5F5F5F5F5F5F5F5F5F5F5F5F5F5F5F5F5F5F5F5F5F5F5F5F5F5F5F5F5F5F5F5F5F5F5F5F5F5F5F5F5F5F5F5F5F5F5E2F5
310
F5F5F5F5F5F5F5F5F5F5F5F5F5F5F5F5F5E2E2EFE2F5F5F5F5F5F5F5F5F5F5F5F5F5F5F5F5F5F5E2F5E2F5F5F5F5F5F5F5F5F5F5F5F5F5F5F5F5F5F5F5F5F5F5F5F5F5F5F5F5F5F5F5F5F5F5F5F5F5F5F5F5F5F5F5F5F5F5F5F5F5F5F5F5F5F5F5F5F5F5F5F5F5F5F5F5F5F5F5F5F5F5F5F5F5F5F5F5F5F5E2F5F5F5F5F5F5
310
F5F5F5F5F5F5F5F5F5F5F5F5F5F5F5F5F5F5F5F5F5F5F5F5F5F5F5F5F5F5F5F5F5F5F5F5F5F5F5F5F5F5F5F5F5F5F5F5F5F5F5E2F5F5F5F5F5F5F5F5F5F5F5F5F5F5F5F5F5F5E2E2EFE2F5F5F5F5F5F5F5F5F5F5F5F5F5F5F5F5F5F5E2F5E2E2E2E2E2E2E2E2E2E2E2E2E2E2E2E2E2E2E2E2E2E2E2E2E2E2E2E2E2E2E2E2E2
310
E2E2E2E2E2E2E2E2E2E2E2E2E2E2E2E2E2E2E2E2E2E2E2E2E2E2E2E2E2E2E2E2E2E2E2E2E2E2E2E2E2E2E2E2E2E2E2F5F5F5F5F5F5F5F5F5F5F5F5F5F5F5F5F5F5F5F5F5F5F5F5F5F5F5F5F5F5F5F5F5F5F5F5F5F5F5F5F5F5F5F5F5F5F5F5F5F5F5F5F5F5F5F5F5E2F5F5F5F5F5F5F5F5F5F5F5F5F5F5F5F5F5F5E2E2EFE2
310
F5F5F5F5F5F5F5F5F5F5F5F5F5F5F5F5F5F5E2F5E2F5F5F5F5F5F5F5F5F5F5F5F5F5F5F5F5F5F5F5F5F5F5F5F5F5F5F5F5F5F5F5F5F5F5F5F5F5F5F5F5F5F5F5F5F5F5F5F5F5F5F5F5F5F5F5F5F5F5F5F5F5E2E2E2E2E2E2E2E2E2E2E2E2E2E2E2E2E2E2F5F5F5F5F5F5F5F5F5F5F5F5F5F5F5F5F5F5F5F5F5F5F5F5F5F5F5
310
F5F5F5F5F5F5F5F5F5F5F5F5F5F5F5F5F5F5F5F5F5F5F5F5F5F5F5F5F5F5E2F5F5F5F5F5F5F5F5F5F5F5F5F5F5F5F5F5F5E2E2EFE2F5E2F5F5F5F5F5F5F5F5F5F5F5F5F5F5F5F5E2E2F5F5F5F5F5F5F5F5F5F5F5F5F5F5F5F5F5F5F5F5F5F5F5F5F5F5F5F5F5F5F5F5F5F5E2E2E2E2E2E2E2E2E2E2E2E2E2E2E2E2E2E2E2E2
310
E2E2E2E2E2E2E2E2F5F5F5F5F5F5F5F5F5F5F5F5F5F5F5F5F5F5F5F5F5F5F5F5F5F5F5F5F5F5F5F5F5F5F5F5F5F5F5F5F5F5F5F5F5F5F5F5F5F5F5F5F5F5F5F5F5F5F5F5F5F5F5F5F5F5F5F5F5F5F5F5F5F5F5E2F5F5F5F5F5F5F5F5F5F5F5F5F5F5F5F5E2F5E2E2EFE2F5E2F5F5F5F5F5F5F5F5F5F5F5F5F5F5F5F5E2E2F5
310
F5F5F5F5F5F5F5F5F5F5F5F5E2E2E2E2E2E2E2E2E2E2E2E2E2E2E2E2E2E2E2E2E2F5F5F5F5F5F5F5F5F5F5F5F5F5F5F5F5F5F5F5F5F5F5F5F5F5F5F5F5F5F5F5F5F5F5F5F5F5F5F5F5F5F5F5F5F5F5F5F5F5F5F5F5F5F5F5F5F5F5F5F5F5F5F5F5F5F5F5F5F5F5F5F5F5F5F5F5F5F5F5F5F5F5F5F5F5F5F5F5F5F5F5F5F5F5
310
F5F5F5F5F5F5F5F5F5E2F5F5F5F5F5F5F5F5F5F5F5F5F5F5F5F5E2F5E2E2EFE2F5E2F5F5F5F5F5F5F5F5F5F5F5F5F5F5F5F5E2E2E2E2E2E2E2E2E2E2E2E2E2E2E2F5F5F5F5F5F5F5F5F5F5F5F5F5F5F5F5F5F5F5F5F5F5F5F5F5F5F5F5F5F5F5F5F5F5F5F5F5F5F5F5F5F5F5F5F5F5F5F5F5F5F5F5F5F5F5F5F5F5F5F5F5F5
310
F5F5F5F5F5F5F5F5F5F5F5F5F5F5F5F5F5F5F5F5F5F5F5F5F5F5F5F5F5F5F5F5F5F5F5F5F5F5F5F5F5F5F5F5F5F5F5F5F5F5F5F5F5F5F5F5F5F5F5F5F5F5E2F5F5F5F5F5F5F5F5F5F5F5F5F5F5F5F5E2F5E2E2EFE2F5E2F5F5F5F5F5F5F5F5F5F5F5F5F5F5F5F5E2F5F5F5F5F5F5F5F5F5F5F5F5F5F5F5F5F5F5F5F5F5F5F5
310
F5F5F5F5F5F5F5F5F5F5F5F5F5F5F5F5F5F5F5F5F5F5F5F5F5F5F5F5F5F5F5F5F5F5F5F5F5F5F5F5F5F5F5F5F5F5F5F5F5F5F5F5F5F5F5F5F5F5F5F5F5F5F5F5F5F5F5F5F5F5F5F5F5F5F5F5F5F5F5F5F5F5F5F5F5F5F5F5F5F5F5F5F5F5F5F5F5F5F5F5F5F5F5F5F5F5F5F5F5F5F5F5F5F5F5E2F5F5F5F5F5F5F5F5F5F5F5
310
F5F5F5F5F5E2F5E2E2EFE2F5E2F5F5F5F5F5F5F5F5F5F5F5F5F5F5F5F5E2F5F5F5F5F5F5F5F5F5F5F5F5F5F5F5F5F5F5F5F5F5F5F5F5F5F5F5F5F5F5F5F5F5F5F5F5F5F5F5F5F5F5F5F5F5F5F5F5F5F5F5F5F5F5F5F5F5F5F5F5F5F5F5F5F5F5F5F5F5F5F5F5F5F5F5F5F5F5F5F5F5F5F5F5F5F5F5F5F5F5F5F5F5F5F5F5F5
310
F5F5F5F5F5F5F5F5F5F5F5F5F5F5F5F5F5F5F5F5F5F5F5F5F5F5F5F5F5F5F5F5F5F5F5F5F5F5F5F5F5E2F5F5F5F5F5F5F5F5F5F5F5F5F5F5F5F5E2F5E2E2EFE2F5E2F5F5F5F5F5F5F5F5F5F5F5F5F5F5F5F5E2F5F5F5F5F5F5F5F5F5F5F5F5F5F5F5F5F5F5F5F5F5F5F5F5F5F5F5F5F5F5F5F5F5F5F5F5F5F5F5F5F5F5F5F5
310
F5F5F5F5F5F5F5F5F5F5F5F5F5F5F5F5F5F5F5F5F5F5F5F5F5F5F5F5F5F5F5F5F5F5F5F5F5F5F5F5F5F5F5F5F5F5F5F5F5F5F5F5F5F5F5F5F5F5F5F5F5F5F5F5F5F5F5F5F5F5F5F5F5F5F5F5F5F5F5F5F5F5F5F5F5F5F5F5F5F5F5F5F5F5E2F5F5F5F5F5F5F5F5F5F5F5F5F5F5F5F5E2F5E2E2EFE2F5E2F5F5F5F5F5F5F5F5
310
F5F5F5F5F5F5F5F5E2F5F5F5F5F5F5F5F5F5F5F5F5F5F5F5F5F5F5F5F5F5F5F5F5F5F5F5F5F5F5F5F5F5F5F5F5F5F5F5F5F5F5F5F5F5F5F5F5F5F5F5F5F5F5F5F5F5F5F5F5F5F5F5F5F5F5F5F5F5F5F5F5F5F5F5F5F5F5F5F5F5F5F5F5F5F5F5F5F5F5F5F5F5F5F5F5F5F5F5F5F5F5F5F5F5F5F5F5F5F5F5F5F5F5F5F5F5F5
310
F5F5F5F5F5F5F5F5F5F5F5F5F5F5F5F5F5F5F5F5E2F5F5F5F5F5F5F5F5F5F5F5F5F5F5F5F5E2F5E2E2EFE2F5E2F5F5F5F5F5F5F5F5F5F5F5F5F5F5F5F5E2F5F5F5F5F5F5F5F5F5F5F5F5F5F5F5F5F5F5F5F5F5F5F5F5F5F5F5F5F5F5F5F5F5F5F5F5F5F5F5F5F5F5F5F5F5F5F5F5F5F5F5F5F5F5F5F5F5F5F5F5F5F5F5F5F5
310
F5F5F5F5F5F5F5F5F5F5F5F5F5F5F5F5F5F5F5F5F5F5F5F5F5F5F5F5F5F5F5F5F5F5F5F5F5F5F5F5F5F5F5F5F5F5F5F5F5F5F5F5F5F5F5F5F5F5F5F5F5F5F5F5F5F5F5F5F5F5F5F5F5E2F5F5F5F5F5F5F5F5F5F5F5F5F5F5F5F5E2F5E2E2EFE2F5E2F5F5F5F5F5F5F5F5F5F5F5F5F5F5F5F5E2F5F5F5F5F5F5F5F5F5F5F5F5
310
F5F5F5F5F5F5F5F5F5F5F5F5F5F5F5F5F5F5F5F5F5F5F5F5F5F5F5F5F5F5F5F5F5F5F5F5F5F5F5F5F5F5F5F5F5F5F5F5F5F5F5F5F5F5F5F5F5F5F5F5F5F5F5F5F5F5F5F5F5F5F5F5F5F5F5F5F5F5F5F5F5F5F5F5F5F5F5F5F5F5F5F5F5F5F5F5F5F5F5F5F5F5F5F5F5F5F5F5F5F5F5F5F5F5F5F5F5F5F5F5F5F5F5F5F5F5E2
310
F5F5F5F5F5F5F5F5F5F5F5F5F5F5F5F5E2F5E2E2EFE2F5E2F5F5F5F5F5F5F5F5F5F5F5F5F5F5F5F5E2F5F5F5F5F5F5F5F5F5F5F5F5F5F5F5F5F5F5F5F5F5F5F5F5F5F5F5F5F5F5F5F5F5F5F5F5F5F5F5F5F5F5F5F5F5F5F5F5F5F5F5F5F5F5F5F5F5F5F5F5F5F5F5F5F5F5F5F5F5F5F5F5F5F5F5F5F5F5F5F5F5F5F5F5F5F5
310
F5F5F5F5F5F5F5F5F5F5F5F5F5F5F5F5F5F5F5F5F5F5F5F5F5F5F5F5F5F5F5F5F5F5F5F5F5F5F5F5F5F5F5F5F5F5F5F5F5F5F5F5E2F5F5F5F5F5F5F5F5F5F5F5F5F5F5F5F5E2F5E2E2EFE2F5E2F5F5F5F5F5F5F5F5F5F5F5F5F5F5F5F5E2F5F5F5F5F5F5F5F5F5F5F5F5F5F5F5F5F5F5F5F5F5F5F5F5F5F5F5F5F5F5F5F5F5
310
F5F5F5F5F5F5F5F5F5F5F5F5F5F5F5F5F5F5F5F5F5F5F5F5F5F5F5F5F5F5F5F5F5F5F5F5F5F5F5F5F5F5F5F5F5F5F5F5F5F5F5F5F5F5F5F5F5F5F5F5F5F5F5F5F5F5F5F5F5F5F5F5F5F5F5F5F5F5F5F5F5F5F5F5F5F5F5F5F5F5F5F5F5F5F5F5F5F5F5F5F5F5F5F5F5E2F5F5F5F5F5F5F5F5F5F5F5F5F5F5F5F5E2F5E2E2EF
310
E2F5E2F5F5F5F5F5F5F5F5F5F5F5F5F5F5F5F5E2F5F5F5F5F5F5F5F5F5F5F5F5F5F5F5F5F5F5F5F5F5F5F5F5F5F5F5F5F5F5F5F5F5F5F5F5F5F5F5F5F5F5F5F5F5F5F5F5F5F5F5F5F5F5F5F5F5F5F5F5F5F5F5F5F5F5F5F5F5F5F5F5F5F5F5F5F5F5F5F5F5F5F5F5F5F5F5F5F5F5F5F5F5F5F5F5F5F5F5F5F5F5F5F5F5F5F5
310
F5F5F5F5F5F5F5F5F5F5F5F5F5F5F5F5F5F5F5F5F5F5F5F5F5F5F5F5F5F5F5E2F5F5F5F5F5F5F5F5F5F5F5F5F5F5F5F5E2F5E2E2EFE2F5E2F5F5F5F5F5F5F5F5F5F5F5F5F5F5F5F5E2F5F5F5F5F5F5F5F5F5F5F5F5F5F5F5F5F5F5F5F5F5F5F5F5F5F5F5F5F5F5F5F5F5F5F5F5F5F5F5F5F5F5F5F5F5F5F5F5F5F5F5F5F5F5
310
F5F5F5F5F5F5F5F5F5F5F5F5F5F5F5F5F5F5F5F5F5F5F5F5F5F5F5F5F5F5F5F5F5F5F5F5F5F5F5F5F5F5F5F5F5F5F5F5F5F5F5F5F5F5F5F5F5F5F5F5F5F5F5F5F5F5F5F5F5F5F5F5F5F5F5F5F5F5F5F5F5F5F5F5E2F5F5F5F5F5F5F5F5F5F5F5F5F5F5F5F5E2F5E2E2EFE2F5E2F5F5F5F5F5F5F5F5F5F5F5F5F5F5F5F5E2F5
310
F5F5F5F5F5F5F5F5F5F5F5F5F5F5F5F5F5F5F5F5F5F5F5F5F5F5F5F5F5F5F5F5F5F5F5F5F5F5F5F5F5F5F5F5F5F5F5F5F5F5F5F5F5F5F5F5F5F5F5F5F5F5F5F5F5F5F5F5F5F5F5F5F5F5F5F5F5F5F5F5F5F5F5F5F5F5F5F5F5F5F5F5F5F5F5F5F5F5F5F5F5F5F5F5F5F5F5F5F5F5F5F5F5F5F5F5F5F5F5F5F5F5F5F5F5F5F5
310
F5F5F5F5F5F5F5F5F5F5E2F5F5F5F5F5F5F5F5F5F5F5F5F5F5F5F5E2F5E2E2EFE2F5E2F5F5F5F5F5F5F5F5F5F5F5F5F5F5F5F5E2F5F5F5F5F5F5F5F5F5F5F5F5F5F5F5F5F5F5F5F5F5F5F5F5F5F5F5F5F5F5F5F5F5F5F5F5F5F5F5F5F5F5F5F5F5F5F5F5F5F5F5F5F5F5F5F5F5F5F5F5F5F5F5F5F5F5F5F5F5F5F5F5F5F5F5
310
F5F5F5F5F5F5F5F5F5F5F5F5F5F5F5F5F5F5F5F5F5F5F5F5F5F5F5F5F5F5F5F5F5F5F5F5F5F5F5F5F5F5F5F5F5F5F5F5F5F5F5F5F5F5F5F5F5F5F5F5F5F5F5E2F5F5F5F5F5F5F5F5F5F5F5F5F5F5F5F5E2F5E2E2EFE2F5E2F5F5F5F5F5F5F5F5F5F5F5F5F5F5F5F5E2F5F5F5F5F5F5F5F5F5F5F5F5F5F5F5F5F5F5F5F5F5F5
310
F5F5F5F5F5F5F5F5F5F5F5F5F5F5F5F5F5F5F5F5F5F5F5F5F5F5F5F5F5F5F5F5F5F5F5F5F5F5F5F5F5F5F5F5F5F5F5F5F5F5F5F5F5F5F5F5F5F5F5F5F5F5F5F5F5F5F5F5F5F5F5F5F5F5F5F5F5F5F5F5F5F5F5F5F5F5F5F5F5F5F5F5F5F5F5F5F5F5F5F5F5F5F5F5F5F5F5F5F5F5F5F5F5F5F5F5E2F5F5F5F5F5F5F5F5F5F5
310
F5F5F5F5F5F5E2F5E2E2EFE2F5E2F5F5F5F5F5F5F5F5F5F5F5F5F5F5F5F5E2F5F5F5F5F5F5F5F5F5F5F5F5F5F5F5F5F5F5F5F5F5F5F5F5F5F5F5F5F5F5F5F5F5F5F5F5F5F5F5F5F5F5F5F5F5F5F5F5F5F5F5F5F5F5F5F5F5F5F5F5F5F5F5F5F5F5F5F5F5F5F5F5F5F5F5F5F5F5F5F5F5F5F5F5F5F5F5F5F5F5F5F5F5F5F5F5
310
F5F5F5F5F5F5F5F5F5F5F5F5F5F5F5F5F5F5F5F5F5F5F5F5F5F5F5F5F5F5F5F5F5F5F5F5F5F5F5F5F5F5E2F5F5F5F5F5F5F5F5F5F5F5F5F5F5F5F5E2F5E2E2EFE2F5F5F5F5F5F5F5F5F5F5F5F5F5F5F5F5F5F5E2F5F5F5F5F5F5F5F5F5F5F5F5F5F5F5F5F5F5F5F5F5F5F5F5F5F5F5F5F5F5F5F5F5F5F5F5F5F5F5F5F5F5F5
310
F5F5F5F5F5F5F5F5F5F5F5F5F5F5F5F5F5F5F5F5F5F5F5F5F5F5F5F5F5F5F5F5F5F5F5F5F5F5F5F5F5F5F5F5F5F5F5F5F5F5F5F5F5F5F5F5F5F5F5F5F5F5F5F5F5F5F5F5F5F5F5F5F5F5F5F5F5F5F5F5F5F5F5F5F5F5F5F5F5F5F5F5F5F5F5E2F5F5F5F5F5F5F5F5F5F5F5F5F5F5F5F5F5F5E2E2EFE2F5F5F5F5F5F5F5F5F5
310
F5F5F5F5F5F5F5F5F5E2F5F5F5F5F5F5F5F5F5F5F5F5F5F5F5F5F5F5F5F5F5F5F5F5F5F5F5F5F5F5F5F5F5F5F5F5F5F5F5F5F5F5F5F5F5F5F5F5F5F5F5F5F5F5F5F5F5F5F5F5F5F5F5F5F5F5F5F5F5F5F5F5F5F5F5F5F5F5F5F5F5F5F5F5F5F5F5F5F5F5F5F5F5F5F5F5F5F5F5F5F5F5F5F5F5F5F5F5F5F5F5F5F5F5F5F5F5
310
F5F5F5F5F5F5F5F5F5F5F5F5F5F5F5F5F5F5F5F5F5E2F5F5F5F5F5F5F5F5F5F5F5F5F5F5F5F5F5F5E2E2EFE2F5F5F5F5F5F5F5F5F5F5F5F5F5F5F5F5F5F5E2F5F5F5F5F5F5F5F5F5F5F5F5F5F5F5F5F5F5F5F5F5F5F5F5F5F5F5F5F5F5F5F5F5F5F5F5F5F5F5F5F5F5F5F5F5F5F5F5F5F5F5F5F5F5F5F5F5F5F5F5F5F5F5F5
310
F5F5F5F5F5F5F5F5F5F5F5F5F5F5F5F5F5F5F5F5F5F5F5F5F5F5F5F5F5F5F5F5F5F5F5F5F5F5F5F5F5F5F5F5F5F5F5F5F5F5F5F5F5F5F5F5F5F5F5F5F5F5F5F5F5F5F5F5F5F5F5F5F5F5E2F5F5F5F5F5F5F5F5F5F5F5F5F5F5F5F5F5F5E2E2EFE2F5F5F5F5F5F5F5F5F5F5F5F5F5F5F5F5F5F5E2F5F5F5F5F5F5F5F5F5F5F5
310
F5F5F5F5F5F5F5F5F5F5F5F5F5F5F5F5F5F5F5F5F5F5F5F5F5F5F5F5F5F5F5F5F5F5F5F5F5F5F5F5F5F5F5F5F5F5F5F5F5F5F5F5F5F5F5F5F5F5F5F5F5F5F5F5F5F5F5F5F5F5F5F5F5F5F5F5F5F5F5F5F5F5F5F5F5F5F5F5F5F5F5F5F5F5F5F5F5F5F5F5F5F5F5F5F5F5F5F5F5F5F5F5F5F5F5F5F5F5F5F5F5F5F5F5F5F5F5
310
E2F5F5F5F5F5F5F5F5F5F5F5F5F5F5F5F5F5F5E2E2EFE2F5F5F5F5F5F5F5F5F5F5F5F5F5F5F5F5F5F5E2F5F5F5F5F5F5F5F5F5F5F5F5F5F5F5F5F5F5F5F5F5F5F5F5F5F5F5F5F5F5F5F5F5F5F5F5F5F5F5F5F5F5F5F5F5F5F5F5F5F5F5F5F5F5F5F5F5F5F5F5F5F5F5F5F5F5F5F5F5F5F5F5F5F5F5F5F5F5F5F5F5F5F5F5F5
310
F5F5F5F5F5F5F5F5F5F5F5F5F5F5F5F5F5F5F5F5F5F5F5F5F5F5F5F5F5F5F5F5F5F5F5F5F5F5F5F5F5F5F5F5F5F5F5F5F5F5F5F5F5E2F5F5F5F5F5F5F5F5F5F5F5F5F5F5F5F5F5F5E2E2EFE2F5F5F5F5F5F5F5F5F5F5F5F5F5F5F5F5F5F5E2F5F5F5F5F5F5F5F5F5F5F5F5F5F5F5F5F5F5F5F5F5F5F5F5F5F5F5F5F5F5F5F5
310
F5F5F5F5F5F5F5F5F5F5F5F5F5F5F5F5F5F5F5F5F5F5F5F5F5F5F5F5F5F5F5F5F5F5F5F5F5F5F5F5F5F5F5F5F5F5F5F5F5F5F5F5F5F5F5F5F5F5F5F5F5F5F5F5F5F5F5F5F5F5F5F5F5F5F5F5F5F5F5F5F5F5F5F5F5F5F5F5F5F5F5F5F5F5F5F5F5F5F5F5F5F5F5F5F5F5E2F5F5F5F5F5F5F5F5F5F5F5F5F5F5F5F5F5F5E2E2
310
EFE2F5F5F5F5F5F5F5F5F5F5F5F5F5F5F5F5F5F5E2F5F5F5F5F5F5F5F5F5F5F5F5F5F5F5F5F5F5F5F5F5F5F5F5F5F5F5F5F5F5F5F5F5F5F5F5F5F5F5F5F5F5F5F5F5F5F5F5F5F5F5F5F5F5F5F5F5F5F5F5F5F5F5F5F5F5F5F5F5F5F5F5F5F5F5F5F5F5F5F5F5F5F5F5F5F5F5F5F5F5F5F5F5F5F5F5F5F5F5F5F5F5F5F5F5F5
310
F5F5F5F5F5F5F5F5F5F5F5F5F5F5F5F5F5F5F5F5F5F5F5F5F5F5F5F5F5F5F5F5E2F5F5F5F5F5F5F5F5F5F5F5F5F5F5F5F5F5F5E2E2EFE2F5F5F5F5F5F5F5F5F5F5F5F5F5F5F5F5F5F5E2F5F5F5F5F5F5F5F5E2E2E2E2E2F5F5F5F5F5F5F5F5F5F5F5F5F5F5F5F5F5F5F5F5F5F5F5F5F5F5F5F5F5F5F5F5F5F5F5F5F5F5F5F5
310
F5F5F5F5F5F5F5F5F5F5F5F5F5F5F5F5F5F5F5F5F5F5F5F5F5F5F5F5F5F5F5F5F5F5F5F5F5F5F5F5F5F5F5F5F5F5F5F5F5F5F5F5F5F5F5F5F5F5F5E2E2E2E2F5F5F5F5F5F5F5F5F5F5F5F5F5F5F5F5F5F5F5F5F5F5E2F5F5F5F5F5F5F5F5F5F5F5F5F5F5F5F5F5F5E2E2EFE2F5F5F5F5F5F5F5F5F5F5F5F5F5F5F5F5F5F5E2
310
F5F5F5F5F5F5E2E2E2E2E2E2E2E2E2E2E2E2E2E2E2E2F5F5F5F5F5F5F5F5F5F5F5F5F5F5F5F5F5F5F5F5F5F5F5F5F5F5F5F5F5F5F5F5F5F5F5F5F5F5F5F5F5F5F5F5F5F5F5F5F5F5F5F5F5F5F5F5F5F5F5F5F5F5F5F5F5F5F5F5F5F5F5F5F5F5F5F5F5F5F5F5F5F5F5F5F5F5F5E2E2E2F5E2F5F5E2E2E2E2E2F5F5F5F5F5F5
310
F5F5F5F5F5F5F5F5F5F5F5E2F5F5F5F5F5F5F5F5F5F5F5F5F5F5F5F5F5F5E2E2EFE2F5E2F5F5F5F5F5F5F5F5F5F5F5F5F5F5F5F5E2F5F5F5F5F5E2E2F5E2F5F5F5E2E2E2E2E2E2E2E2E2E2E2E2E2E2E2E2E2E2E2E2E2E2E2F5F5F5F5F5F5F5F5F5F5F5F5F5F5F5F5F5F5F5F5F5F5F5F5F5F5F5F5F5F5F5F5F5F5F5F5F5F5F5
310
F5F5F5F5F5F5F5F5F5F5F5F5F5F5F5F5F5F5F5F5F5F5F5F5F5F5F5F5F5F5F5F5F5F5F5E2E2F5F5E2F5F5F5F5F5F5F5E2E2E2E2F5F5F5F5F5F5F5F5F5F5F5F5F5E2F5F5F5F5F5F5F5F5F5F5F5F5F5F5F5F5E2F5E2E2EFE2F5E2F5F5F5F5F5F5F5F5F5F5F5F5F5F5F5F5E2F5F5F5F5E2E2E2E2F5E2F5F5F5F5F5F5F5F5F5F5F5
310
F5E2E2E2E2E2E2E2E2E2E2E2E2E2E2E2E2E2E2E2E2E2E2E2E2E2E2E2E2E2E2E2F5F5F5F5F5F5F5F5F5F5F5F5F5F5F5F5F5F5F5F5F5F5F5F5F5F5F5F5F5F5F5F5F5F5F5F5F5F5F5F5F5F5F5F5F5F5F5F5F5F5F5F5F5F5F5F5E2E2E2F5E2F5F5F5F5F5F5F5F5F5F5F5E2E2E2E2E2F5F5F5F5F5F5F5F5E2F5F5F5F5F5F5F5F5F5
310
F5F5F5F5F5F5F5E2F5E2E2EFE2F5E2F5F5F5F5F5F5F5F5F5F5F5F5F5F5F5F5E2F5F5F5F5E2E2F5F5E2F5E2E2F5F5F5F5F5F5F5F5F5F5F5F5F5F5F5F5F5F5F5F5F5F5F5F5F5F5F5F5F5F5E2E2E2E2E2E2E2E2E2E2E2E2E2E2E2E2E2E2E2E2E2E2E2E2E2F5F5F5F5F5F5F5F5F5F5F5F5F5F5F5F5F5F5F5F5F5F5F5F5F5F5F5F5
310
F5F5F5F5F5F5F5F5F5F5F5F5F5F5E2F5E2E2E2F5F5F5F5F5F5F5F5F5F5F5F5F5F5F5F5E2E2E2E2E2F5F5F5E2F5F5F5F5F5F5F5F5F5F5F5F5F5F5F5F5E2F5E2E2EFE2F5E2F5F5F5F5F5F5F5F5F5F5F5F5F5F5F5F5E2F5F5F5E2E2E2F5F5E2F5F5F5E2F5F5F5F5F5F5F5F5F5F5F5F5F5F5F5F5F5F5F5F5F5F5F5F5F5F5F5F5F5
310
F5F5F5F5F5F5F5F5F5F5F5E2E2E2E2E2E2E2E2E2E2F5F5F5E2E2E2E2E2E2E2E2E2F5F5F5F5F5F5F5F5F5F5F5F5F5F5F5F5F5F5F5F5F5F5F5F5F5F5F5F5F5F5F5F5F5F5E2F5E2E2E2F5F5F5F5F5F5F5F5F5F5F5F5F5F5F5F5F5F5F5F5F5E2E2E2E2F5F5F5F5F5F5F5F5F5F5F5F5F5F5F5F5E2F5E2E2EFE2F5E2F5F5F5F5F5F5
310
F5F5F5F5F5F5F5F5F5F5E2F5F5F5E2E2F5F5F5F5E2E2E2E2E2E2E2E2E2E2E2E2E2E2E2E2E2E2E2E2E2E2E2E2E2E2E2F5F5F5F5F5F5F5F5F5F5F5F5F5F5F5F5F5F5F5F5F5F5F5F5F5F5F5E2E2E2E2E2E2E2E2E2E2F5E2E2E2E2E2E2E2F5F5F5F5F5F5F5F5F5F5F5F5F5F5F5F5F5F5F5F5F5F5F5F5F5F5F5F5E2F5F5E2E2E2E2
310
F5F5F5F5F5F5F5F5F5F5F5F5F5F5F5F5F5F5F5F5F5E2E2F5F5F5F5F5F5F5F5F5F5F5F5F5F5F5F5E2F5E2E2EFE2F5E2F5F5F5F5F5F5F5F5F5F5F5F5F5F5F5F5E2F5F5F5E2E2F5F5F5F5F5E2E2F5F5E2E2E2F5F5F5F5F5F5F5F5F5F5F5F5F5F5F5F5E2E2E2E2E2E2E2E2E2E2E2E2E2E2E2E2E2E2E2F5F5F5F5F5F5F5F5F5F5F5
310
F5F5F5F5F5F5F5F5F5F5E2E2E2E2E2E2E2E2F5F5F5F5F5F5F5F5F5F5F5F5F5F5F5F5F5F5F5F5F5F5F5F5F5F5F5F5E2F5F5E2E2F5F5E2E2E2E2E2E2F5F5F5F5F5F5F5F5F5F5F5F5F5F5F5E2E2F5F5F5F5F5F5F5F5F5F5F5F5F5F5F5F5E2F5E2E2EFE2F5E2F5F5F5F5F5F5F5F5F5F5F5F5F5F5F5F5E2F5F5E2E2F5F5F5F5F5F5
310
E2E2E2E2F5F5F5E2E2E2E2F5F5F5F5F5F5F5F5F5F5F5F5E2F5F5F5F5F5F5F5F5F5F5F5E2F5F5F5F5F5E2E2E2E2E2E2E2E2E2E2E2E2E2E2E2E2E2E2E2E2E2E2E2E2E2E2F5E2E2E2F5F5F5F5F5F5F5F5F5F5F5F5F5F5F5F5F5F5F5F5F5F5F5F5F5F5F5F5E2F5F5E2E2F5F5F5F5F5F5F5F5E2E2E2E2E2E2F5F5F5F5F5F5F5F5F5
310
E2E2F5F5F5F5F5F5F5F5F5F5F5F5F5F5F5F5E2F5E2E2EFE2F5E2F5F5F5F5F5F5F5F5F5F5F5F5F5F5F5F5E2F5F5E2E2F5F5F5F5F5E2F5F5F5F5E2E2E2E2E2E2E2E2E2E2E2E2E2E2E2E2E2E2E2E2F5F5F5F5F5F5F5F5F5F5F5E2F5F5F5F5F5F5F5F5F5F5F5F5F5F5F5F5F5F5F5F5E2E2E2E2E2E2E2E2E2E2E2E2E2E2E2F5F5F5
310
F5F5F5F5F5F5F5F5F5F5F5F5F5F5F5F5F5F5F5F5F5F5F5F5F5E2F5F5E2E2F5F5F5F5F5F5F5F5F5F5F5F5F5F5E2E2E2E2E2E2F5F5F5E2E2F5F5F5F5F5F5F5F5F5F5F5F5F5F5F5F5E2F5E2E2EFE2F5E2F5F5F5F5F5F5F5F5F5F5F5F5F5F5F5F5E2F5F5E2F5F5F5F5F5F5E2F5F5F5F5F5F5E2E2E2E2E2F5E2F5F5F5F5F5F5F5F5
310
F5F5E2E2E2E2E2E2E2E2E2E2E2E2E2E2E2E2E2E2E2E2E2E2E2E2E2E2E2E2E2E2E2E2E2E2E2E2E2E2E2E2F5F5E2E2E2F5E2E2F5F5F5F5F5F5F5F5F5F5F5F5F5F5F5F5F5F5F5F5F5F5F5F5F5F5F5F5E2F5F5E2E2F5F5F5F5F5F5F5F5F5F5F5F5F5F5F5F5F5F5F5F5E2E2E2E2E2F5F5F5F5F5F5F5F5F5F5F5F5F5F5F5F5E2F5E2
310
E2EFE2F5E2F5F5F5F5F5F5F5F5F5F5F5F5F5F5F5F5E2F5E2E2F5F5F5F5F5E2E2F5F5F5F5F5F5E2E2E2E2E2E2E2E2E2E2E2E2F5F5F5F5F5F5F5F5F5F5F5F5F5F5F5F5F5F5F5F5F5F5F5F5F5F5F5F5F5F5F5F5F5F5F5F5F5F5E2F5E2E2E2E2F5F5F5E2E2F5F5E2E2F5F5F5F5F5F5F5F5F5F5F5F5F5F5F5F5F5F5F5F5F5F5F5F5
310
F5F5F5F5E2F5F5E2E2F5F5F5F5F5F5F5F5F5F5F5F5F5F5F5F5F5F5F5F5F5F5F5E2E2F5F5F5F5F5F5F5F5F5F5F5F5F5F5F5F5E2F5E2E2EFE2F5E2F5F5F5F5F5F5F5F5F5F5F5F5F5F5F5F5E2F5E2E2F5F5F5F5F5E2E2F5F5F5F5F5F5E2F5F5E2E2F5F5F5F5F5F5F5E2E2E2E2E2E2E2E2E2E2E2E2E2E2E2E2E2E2E2E2E2E2E2E2
310
E2F5F5F5F5F5F5F5F5F5F5F5F5F5E2F5E2E2E2E2E2E2E2F5E2F5F5E2E2F5F5F5F5F5F5F5F5F5F5F5F5F5F5F5F5F5F5F5F5F5F5F5F5F5F5F5F5E2F5F5E2E2F5F5F5F5F5F5F5F5F5F5F5F5F5F5F5F5F5F5F5F5F5F5F5E2E2F5F5F5F5F5F5F5F5F5F5F5F5F5F5F5F5E2F5E2E2EFE2F5E2F5F5F5F5F5F5F5F5F5F5F5F5F5F5F5F5
310
E2F5E2E2F5F5F5F5F5E2F5F5F5F5F5F5F5E2F5E2E2F5F5F5F5F5F5F5F5F5F5F5F5F5F5F5F5F5F5F5F5F5F5F5F5F5F5F5F5F5F5F5F5F5E2E2E2E2E2E2E2E2E2E2E2E2E2E2E2E2F5E2E2E2F5F5F5E2F5F5E2E2F5F5F5F5F5F5F5F5F5F5F5F5F5F5F5F5F5F5F5F5F5F5F5F5F5F5F5F5E2F5F5E2E2F5F5F5F5F5F5F5F5F5F5F5F5
310
F5F5F5F5F5F5F5F5F5F5F5E2E2F5F5F5F5F5F5F5F5F5F5F5F5F5F5F5F5E2F5E2E2EFE2F5E2F5F5F5F5F5F5F5F5F5F5F5F5F5F5F5F5E2F5E2F5F5F5F5F5F5E2F5F5F5F5F5F5E2E2E2E2F5F5F5F5F5F5F5F5F5F5F5F5F5F5F5F5F5F5F5F5F5F5F5F5F5F5F5F5F5F5F5F5F5F5F5F5F5F5F5F5F5F5F5F5F5F5F5F5F5E2E2E2E2F5
310
F5F5F5E2F5F5E2E2F5F5F5F5F5F5F5F5F5F5F5F5F5F5F5F5F5F5F5F5F5F5F5F5F5F5F5F5E2F5F5E2E2F5F5F5F5F5F5F5F5F5F5F5F5F5F5F5F5F5F5F5F5F5F5F5E2E2F5F5F5F5F5F5F5F5F5F5F5F5F5F5F5F5E2F5E2E2EFE2F5E2F5F5F5F5F5F5F5F5F5F5F5F5F5F5F5F5E2E2E2F5F5F5F5F5E2E2F5F5F5F5F5F5E2F5F5E2F5
310
F5F5F5F5F5F5F5F5F5F5F5F5F5F5F5F5F5F5F5F5F5F5F5F5F5F5F5F5F5F5F5F5F5F5F5F5F5F5F5F5F5F5F5F5F5F5F5F5E2E2F5E2F5F5F5F5E2F5F5E2E2F5F5F5F5F5F5F5F5F5F5F5F5F5F5F5F5F5F5F5F5F5F5F5F5F5F5F5F5E2F5F5E2E2F5F5F5F5F5F5F5F5F5F5F5F5F5F5F5F5F5F5F5F5F5F5F5E2E2F5F5F5F5F5F5F5F5
310
F5F5F5F5F5F5F5F5E2F5E2E2EFE2F5E2F5F5F5F5F5F5F5F5F5F5F5F5F5F5F5F5E2E2E2F5F5F5F5F5E2E2F5F5F5F5F5F5E2F5F5E2F5F5F5F5F5F5F5F5F5F5F5F5F5F5F5F5F5F5F5F5F5F5F5F5F5F5F5F5F5F5F5F5F5F5F5F5F5F5F5F5F5F5F5F5F5F5F5F5F5F5E2E2E2F5F5F5F5E2F5F5E2E2F5F5F5F5F5F5F5F5F5F5F5F5F5
310
F5F5F5F5F5F5F5F5F5F5F5F5F5F5F5E2F5F5E2E2F5F5F5F5F5F5F5F5F5F5F5F5F5F5F5F5F5F5F5F5F5F5F5E2E2F5F5F5F5F5F5F5F5F5F5F5F5F5F5F5F5E2F5E2E2EFE2F5E2F5F5F5F5F5F5F5F5F5F5F5F5F5F5F5F5E2E2E2F5F5F5F5F5E2F5F5F5F5F5F5F5E2F5E2F5F5F5F5F5F5F5F5F5F5F5F5F5F5F5F5F5F5F5F5F5F5F5
310
F5F5F5F5F5F5F5F5F5F5F5F5F5F5F5F5F5F5F5F5F5F5F5F5F5F5F5F5E2F5E2F5F5F5F5E2F5F5E2E2F5F5F5F5F5F5F5F5F5F5F5F5F5F5F5F5F5F5F5F5F5F5F5F5F5F5F5F5E2F5F5E2E2F5F5F5F5F5F5F5F5F5F5F5F5F5F5F5F5F5F5F5F5F5F5F5E2E2F5F5F5F5F5F5F5F5F5F5F5F5F5F5F5F5E2F5E2E2EFE2F5E2F5F5F5F5F5
310
F5F5F5F5F5F5F5F5F5F5F5E2E2E2F5F5F5F5F5E2F5F5F5F5F5F5F5E2F5E2F5F5F5F5F5F5F5F5F5F5F5F5F5F5F5F5F5F5F5F5F5F5F5F5F5F5F5F5F5F5F5F5F5F5F5F5F5F5F5F5F5F5F5F5F5F5F5F5F5F5F5E2F5E2F5F5F5F5E2F5F5E2E2F5F5F5F5F5F5F5F5F5F5F5F5F5F5F5F5F5F5F5F5F5F5F5F5F5F5F5F5E2F5F5E2E2F5
310
F5F5F5F5F5F5F5F5F5F5F5F5F5F5F5F5F5F5F5F5F5F5E2E2F5F5F5F5F5F5F5F5F5F5F5F5F5F5F5F5E2F5E2E2EFE2F5F5F5F5F5F5F5F5F5F5F5F5F5F5F5F5F5F5E2E2E2F5F5F5F5F5E2F5F5F5F5F5F5F5E2F5E2F5F5F5F5F5F5F5F5F5F5F5F5F5F5F5F5F5F5F5F5F5F5F5F5F5F5F5F5F5F5F5F5F5F5F5F5F5F5F5F5F5F5F5F5
310
F5F5F5F5F5F5E2E2F5E2F5F5F5F5E2F5F5E2E2F5F5F5F5F5F5F5F5F5F5F5F5F5F5F5F5F5F5F5F5F5F5F5F5F5F5F5F5E2F5F5E2E2F5F5F5F5F5F5F5F5F5F5F5F5F5F5F5F5F5F5F5F5F5F5F5E2E2F5F5F5F5F5F5F5F5F5F5F5F5F5F5F5F5F5F5E2E2EFE2F5F5F5F5F5F5F5F5F5F5F5F5F5F5F5F5F5F5E2E2F5F5F5F5F5F5E2F5
310
F5F5F5F5F5E2F5F5E2F5F5F5F5F5F5F5F5F5F5F5F5F5F5F5F5F5F5F5F5F5F5F5F5F5F5F5F5F5F5F5F5F5F5F5F5F5F5F5F5F5F5F5F5F5F5F5E2E2E2E2E2F5E2F5F5F5F5E2F5F5E2E2F5F5F5F5F5F5F5F5F5F5F5F5F5F5F5F5F5F5F5F5F5F5F5F5F5F5F5F5E2F5F5E2E2F5F5F5F5F5F5F5F5F5F5F5F5F5F5F5F5F5F5F5F5F5F5
310
F5E2E2F5F5F5F5F5F5F5F5F5F5F5F5F5F5F5F5F5F5E2E2EFE2F5F5F5F5F5F5F5F5F5F5F5F5F5F5F5F5F5F5E2E2F5F5F5F5F5F5E2F5F5F5F5F5F5E2F5F5E2F5F5F5F5F5F5F5F5F5F5F5F5F5F5F5F5F5F5F5F5F5F5F5F5F5F5F5F5F5F5F5F5F5F5F5F5F5F5F5F5F5F5F5F5F5F5E2E2E2E2E2E2F5E2F5F5F5E2E2F5F5E2E2F5F5
310
F5F5F5F5F5F5F5F5F5F5F5F5F5F5F5F5F5F5F5F5F5F5F5F5F5F5E2F5F5E2E2F5F5F5F5F5F5F5F5F5F5F5F5F5F5F5F5F5F5F5F5F5F5F5E2E2F5F5F5F5F5F5F5F5F5F5F5F5F5F5F5F5F5F5E2E2EFE2F5F5F5F5F5F5F5F5F5F5F5F5F5F5F5F5F5F5E2E2F5F5F5F5F5F5E2F5F5F5F5F5F5E2F5F5E2F5F5F5F5F5F5F5F5F5F5F5F5
310
F5F5F5F5F5F5F5F5F5F5F5F5F5F5F5F5F5F5F5F5F5F5F5F5F5F5F5F5F5F5F5F5F5F5E2E2E2E2E2E2F5E2F5F5F5E2E2F5F5E2E2F5F5F5F5F5F5F5F5F5F5F5F5F5F5F5F5F5F5F5F5F5F5F5F5F5F5F5F5E2F5F5E2E2F5F5F5F5F5F5F5F5F5F5F5F5F5F5F5F5F5F5F5F5F5F5F5E2E2F5F5F5F5F5F5F5F5F5F5F5F5F5F5F5F5F5F5
310
E2E2EFE2F5F5F5F5F5F5F5F5F5F5F5F5F5F5F5F5F5F5E2E2F5F5F5F5F5F5E2F5F5F5F5F5F5E2F5F5E2F5F5F5F5F5F5F5F5F5F5F5F5F5F5F5F5F5F5F5F5F5F5F5F5F5F5F5F5F5F5F5F5F5F5F5F5F5F5F5F5F5F5F5F5F5F5E2E2E2E2E2E2F5E2F5F5F5E2E2F5F5E2E2F5F5F5F5F5F5F5F5F5F5F5F5F5F5F5F5F5F5F5F5F5F5F5
310
F5F5F5F5F5E2F5F5E2E2F5F5F5F5F5F5F5F5F5F5F5F5F5F5F5F5F5F5F5F5F5F5F5E2E2F5F5F5F5F5F5F5F5F5F5F5F5F5F5F5F5F5F5E2E2EFE2F5F5F5F5F5F5F5F5F5F5F5F5F5F5F5F5F5F5E2E2F5F5F5F5F5F5E2F5F5F5F5F5F5E2F5F5E2F5F5F5F5F5F5F5F5F5F5F5F5F5F5F5F5F5F5F5F5F5F5F5F5F5F5F5F5F5F5F5F5F5
310
F5F5F5F5F5F5F5F5F5F5F5F5F5E2E2E2E2E2E2F5E2F5F5F5E2E2F5F5E2E2F5F5F5F5F5F5F5F5F5F5F5F5F5F5F5F5F5F5F5F5F5F5F5F5F5F5F5F5E2F5F5E2E2F5F5F5F5F5F5F5F5F5F5F5F5F5F5F5F5F5F5F5F5F5F5F5E2E2F5F5F5F5F5F5F5F5F5F5F5F5F5F5F5F5F5F5E2E2EFE2F5F5F5F5F5F5F5F5F5F5F5F5F5F5F5F5F5
310
F5E2E2F5F5F5F5F5F5E2F5F5F5F5F5F5E2F5F5E2F5F5F5F5F5F5F5F5F5F5F5F5F5F5F5F5F5F5F5F5F5F5F5F5F5F5F5F5F5F5F5F5F5F5F5F5F5F5F5F5F5F5F5F5F5F5F5E2E2E2E2E2F5E2F5F5F5F5E2F5F5E2E2F5F5F5F5F5F5F5F5F5F5F5F5F5F5F5F5F5F5F5F5F5F5F5F5F5F5F5F5E2F5F5E2E2F5F5F5F5F5F5F5F5F5F5F5
310
F5F5F5F5F5F5F5F5F5F5F5F5E2E2F5F5F5F5F5F5F5F5F5F5F5F5F5F5F5F5F5F5E2E2EFE2F5F5F5F5F5F5F5F5F5F5F5F5F5F5F5F5F5F5E2E2E2F5F5F5F5F5E2F5F5F5F5F5F5F5E2F5E2F5F5F5F5F5F5F5F5F5F5F5F5F5F5F5F5F5F5F5F5F5F5F5F5F5F5F5F5F5F5F5F5F5F5F5F5F5F5F5F5F5F5F5F5F5F5F5F5F5F5F5E2F5E2
310
F5F5F5F5E2F5F5E2E2F5F5F5F5F5F5F5F5F5F5F5F5F5F5F5F5F5F5F5F5F5F5F5F5F5F5F5F5E2F5F5E2E2F5F5F5F5F5F5F5F5F5F5F5F5F5F5F5F5F5F5F5F5F5F5F5E2E2F5F5F5F5F5F5F5F5F5F5F5F5F5F5F5F5F5F5E2E2EFE2F5F5F5F5F5F5F5F5F5F5F5F5F5F5F5F5F5F5E2E2E2F5F5F5F5F5E2F5F5F5F5F5F5F5E2F5E2F5
310
F5F5F5F5F5F5F5F5F5F5F5F5F5F5F5F5F5F5F5F5F5F5F5F5F5F5F5F5F5F5F5F5F5F5F5F5F5F5F5F5F5F5F5F5F5F5F5F5F5F5E2F5E2F5F5F5F5E2F5F5E2E2F5F5F5F5F5F5F5F5F5F5F5F5F5F5F5F5F5F5F5F5F5F5F5F5F5F5F5F5E2F5F5E2E2F5F5F5F5F5F5F5F5F5F5F5F5F5F5F5F5F5F5F5F5F5F5F5E2E2F5F5F5F5F5F5F5
310
F5F5F5F5F5F5F5F5F5F5F5E2E2EFE2F5F5F5F5F5F5F5F5F5F5F5F5F5F5F5F5F5F5E2E2E2F5F5F5F5F5E2F5F5F5F5F5F5F5E2F5E2F5F5F5F5F5F5F5F5F5F5F5F5F5F5F5F5F5F5F5F5F5F5F5F5F5F5F5F5F5F5F5F5F5F5F5F5F5F5F5F5F5F5F5F5F5F5F5F5F5F5F5E2F5E2F5F5F5F5E2F5F5E2E2F5F5F5F5F5F5F5F5F5F5F5F5
310
F5F5F5F5F5F5F5F5F5F5F5F5F5F5F5F5E2F5F5E2E2F5F5F5F5F5F5F5F5F5F5F5F5F5F5F5F5F5F5F5F5F5F5F5E2E2F5F5F5F5F5F5F5F5F5F5F5F5F5F5F5F5F5F5E2E2EFE2F5E2F5F5F5F5F5F5F5F5F5F5F5F5F5F5F5F5E2E2E2F5F5F5F5F5E2E2F5F5F5F5F5F5E2F5F5E2F5F5F5F5F5F5F5F5F5F5F5F5F5F5F5F5F5F5F5F5F5
310
F5F5F5F5F5F5F5F5F5F5F5F5F5F5F5F5F5F5F5F5F5F5F5F5F5F5F5F5F5E2E2E2F5F5F5F5E2F5F5E2E2F5F5F5F5F5F5F5F5F5F5F5F5F5F5F5F5F5F5F5F5F5F5F5F5F5F5F5F5E2F5F5E2E2F5F5F5F5F5F5F5F5F5F5F5F5F5F5F5F5F5F5F5F5F5F5F5E2E2F5F5F5F5F5F5F5F5F5F5F5F5F5F5F5F5E2F5E2E2EFE2F5E2F5F5F5F5
310
F5F5F5F5F5F5F5F5F5F5F5F5E2E2E2F5F5F5F5F5E2E2F5F5F5F5F5F5E2F5F5E2F5F5F5F5F5F5F5F5F5F5F5F5F5F5F5F5F5F5F5F5F5F5F5F5F5F5F5F5F5F5F5F5F5F5F5F5F5F5F5F5F5F5F5F5F5F5F5F5F5E2E2F5E2F5F5F5F5E2F5F5E2E2F5F5F5F5F5F5F5F5F5F5F5F5F5F5F5F5F5F5F5F5F5F5F5F5F5F5F5F5E2F5F5E2E2
310
F5F5F5F5F5F5F5F5F5F5F5F5F5F5F5F5F5F5F5F5F5F5F5E2E2F5F5F5F5F5F5F5F5F5F5F5F5F5F5F5F5E2F5E2E2EFE2F5E2F5F5F5F5F5F5F5F5F5F5F5F5F5F5F5F5E2F5E2F5F5F5F5F5F5E2F5F5F5F5F5F5F5E2F5E2F5F5F5F5F5F5F5F5F5F5F5F5F5F5F5F5F5F5F5F5F5F5F5F5F5F5F5F5F5F5F5F5F5F5F5F5F5F5F5F5F5F5
310
F5F5F5F5F5F5E2E2E2E2E2F5F5F5F5E2F5F5E2E2F5F5F5F5F5F5F5F5F5F5F5F5F5F5F5F5F5F5F5F5F5F5F5F5F5F5F5F5E2F5F5E2E2F5F5F5F5F5F5F5F5F5F5F5F5F5F5F5F5F5F5F5F5F5F5F5E2E2F5F5F5F5F5F5F5F5F5F5F5F5F5F5F5F5E2F5E2E2EFE2F5E2F5F5F5F5F5F5F5F5F5F5F5F5F5F5F5F5E2F5E2E2F5F5F5F5F5
310
E2F5F5F5F5F5F5F5E2E2E2E2F5F5F5F5F5F5F5F5F5F5F5F5F5F5F5F5F5F5F5F5F5F5F5F5F5F5F5F5E2E2E2E2E2E2E2E2E2E2E2E2E2E2E2E2E2E2E2E2E2E2E2E2E2E2F5F5E2F5F5E2E2F5F5F5F5F5F5F5F5F5F5F5F5F5F5F5F5F5F5F5F5F5F5F5F5F5F5F5F5E2F5F5E2E2F5F5F5F5F5F5F5F5F5F5F5F5F5F5F5F5F5F5F5F5F5
310
F5F5E2E2F5F5F5F5F5F5F5F5F5F5F5F5F5F5F5F5E2F5E2E2EFE2F5E2F5F5F5F5F5F5F5F5F5F5F5F5F5F5F5F5E2F5E2E2F5F5F5F5F5E2E2F5F5F5F5F5F5E2F5F5E2E2E2E2E2E2E2E2E2E2E2E2E2E2E2E2E2E2E2E2E2E2E2E2E2E2E2E2E2F5F5F5F5F5F5F5F5F5F5F5F5F5F5F5F5F5F5E2F5E2E2E2E2E2F5E2E2E2F5F5E2E2F5
310
F5F5F5F5F5F5F5F5F5F5F5F5F5F5F5F5F5F5F5F5F5F5F5F5F5F5F5E2F5F5E2E2F5F5F5F5F5F5F5F5F5F5F5F5F5F5F5F5F5F5F5F5F5F5F5E2E2F5F5F5F5F5F5F5F5F5F5F5F5F5F5F5F5E2F5E2E2EFE2F5E2F5F5F5F5F5F5F5F5F5F5F5F5F5F5F5F5E2F5E2E2F5F5F5F5F5E2E2F5F5F5F5F5F5F5E2E2E2E2F5E2F5F5F5F5F5F5
310
F5F5F5F5F5F5F5F5F5F5F5F5F5F5F5F5F5F5F5F5F5F5F5F5F5F5F5E2E2E2E2E2E2E2E2E2E2E2E2E2E2E2E2F5F5F5E2E2F5F5E2E2F5F5F5F5F5F5F5F5F5F5F5F5F5F5F5F5F5F5F5F5F5F5F5F5F5F5F5F5E2F5F5E2E2F5F5F5F5F5F5F5F5F5F5F5F5F5F5F5F5F5F5F5F5F5F5F5E2E2F5F5F5F5F5F5F5F5F5F5F5F5F5F5F5F5E2
310
F5E2E2EFE2F5E2F5F5F5F5F5F5F5F5F5F5F5F5F5F5F5F5E2F5F5E2F5F5F5F5F5F5E2F5F5F5F5F5F5E2E2E2E2E2F5E2F5F5F5F5F5F5F5F5F5F5E2E2E2E2E2E2E2E2E2E2E2E2E2E2E2E2E2E2E2E2E2E2E2F5F5F5F5F5F5F5F5F5F5F5F5F5F5E2E2E2F5F5E2E2E2F5E2E2F5F5F5F5F5F5F5F5F5F5F5F5F5F5F5F5F5F5F5F5F5F5
310
F5F5F5F5F5F5E2F5F5E2E2F5F5F5F5F5F5F5F5F5F5F5F5F5F5F5F5F5F5F5F5F5E2E2E2E2F5F5F5F5F5F5F5F5F5F5F5F5F5F5F5F5E2F5E2E2EFE2F5E2F5F5F5F5F5F5F5F5F5F5F5F5F5F5F5F5E2F5F5E2E2F5F5F5F5F5E2F5F5F5E2E2E2F5E2E2E2E2E2E2E2E2E2E2E2E2E2E2E2E2E2F5F5F5F5F5F5F5F5F5F5F5E2F5F5F5F5
310
F5F5F5F5F5F5F5F5F5F5F5F5F5F5F5F5F5E2E2E2E2E2E2E2E2E2E2E2E2E2E2F5F5F5F5F5F5F5F5F5F5F5F5F5F5F5F5F5F5F5F5F5F5F5F5F5F5F5F5E2F5F5E2E2F5F5F5F5F5F5F5F5F5F5F5F5F5F5F5E2E2E2E2E2E2F5F5E2E2F5F5F5F5F5F5F5F5F5F5F5F5F5F5F5F5E2F5E2E2EFE2F5E2F5F5F5F5F5F5F5F5F5F5F5F5F5F5
310
F5F5E2F5F5E2E2F5F5F5F5F5F5E2F5E2F5F5F5F5E2E2F5F5F5F5F5F5F5F5F5F5F5F5F5F5E2F5F5F5F5F5F5F5F5F5F5F5E2F5F5F5F5F5E2E2E2E2E2E2E2E2E2E2E2E2E2E2E2E2F5F5F5F5F5F5F5F5E2E2F5E2E2E2F5F5F5F5F5F5F5F5F5F5F5F5F5F5F5F5F5F5F5F5F5F5F5F5F5F5F5F5E2F5F5E2E2F5F5F5F5F5F5F5F5F5E2
310
E2E2E2E2E2F5F5F5F5F5F5F5F5E2E2F5F5F5F5F5F5F5F5F5F5F5F5F5F5F5F5E2F5E2E2EFE2F5E2F5F5F5F5F5F5F5F5F5F5F5F5F5F5F5F5E2F5F5F5E2E2F5F5F5F5E2E2E2F5F5E2E2E2F5F5F5F5E2E2E2E2E2E2E2E2E2E2E2E2E2E2E2E2E2E2E2E2E2E2E2E2E2E2E2E2E2E2F5F5F5F5F5F5F5F5F5F5F5F5F5F5F5F5F5F5F5F5
310
F5F5F5E2E2E2E2E2E2E2F5F5F5F5F5F5F5F5F5F5F5F5F5F5F5F5F5F5F5F5F5F5F5F5F5F5F5F5E2F5F5E2E2F5F5F5E2E2E2E2E2E2F5F5F5F5F5F5F5F5F5F5F5F5F5F5E2E2F5F5F5F5F5F5F5F5F5F5F5F5F5F5F5F5E2F5E2E2EFE2F5E2F5F5F5F5F5F5F5F5F5F5F5F5F5F5F5F5E2F5F5F5E2E2F5F5F5F5E2F5E2E2E2E2E2E2E2
310
E2E2E2F5F5F5F5F5F5F5F5F5F5F5F5F5F5F5F5F5F5F5F5F5F5F5F5F5F5F5F5F5F5F5F5F5F5F5F5F5F5F5F5F5F5F5F5E2E2E2E2E2E2E2E2E2E2E2E2E2E2E2E2F5F5F5F5F5F5F5F5F5F5F5F5F5F5F5F5F5F5F5F5F5F5F5F5F5F5F5F5E2F5F5E2E2E2E2E2F5F5F5F5F5F5F5F5F5F5F5F5F5F5F5F5F5F5F5F5E2E2F5F5F5F5F5F5
310
F5F5F5F5F5F5F5F5F5F5E2F5E2E2EFE2F5E2F5F5F5F5F5F5F5F5F5F5F5F5F5F5F5F5E2F5F5F5F5E2E2F5F5E2F5F5E2E2F5F5F5F5F5F5F5F5F5F5F5F5F5F5F5F5F5F5F5F5F5F5F5F5F5F5F5F5F5F5F5F5F5F5F5F5F5F5F5F5F5F5E2E2E2E2E2E2E2E2E2E2E2E2E2E2E2E2F5F5F5F5F5F5F5F5F5F5F5F5F5F5F5F5F5F5F5F5F5
310
F5F5F5F5F5F5F5F5F5F5F5F5F5F5F5F5F5E2F5E2E2E2F5F5F5F5F5F5F5F5F5F5F5F5F5F5F5F5F5F5F5F5F5E2E2E2E2F5F5F5F5F5F5F5F5F5F5F5F5F5F5F5F5E2F5E2E2EFE2F5E2F5F5F5F5F5F5F5F5F5F5F5F5F5F5F5F5E2F5F5F5F5E2E2F5E2E2E2E2F5F5F5F5F5F5F5F5F5F5F5F5F5F5F5F5F5F5F5F5F5F5F5E2E2E2E2E2
310
E2E2E2E2E2E2E2E2E2E2E2E2E2E2E2E2E2E2E2F5F5F5F5F5F5F5F5F5F5F5F5F5F5F5F5F5F5F5F5F5F5F5F5F5F5F5F5F5F5F5F5F5F5F5F5F5F5F5F5F5F5F5F5F5F5F5F5F5F5F5E2F5E2F5E2F5F5F5F5F5F5F5F5F5F5F5F5F5F5F5E2E2E2E2E2E2F5F5F5E2F5F5F5F5F5F5F5F5F5F5F5F5F5F5F5F5E2F5E2E2EFE2F5E2F5F5F5
310
F5F5F5F5F5F5F5F5F5F5F5F5F5E2F5F5F5F5F5E2E2F5F5E2F5F5F5F5F5F5F5F5F5F5F5F5F5E2E2E2E2E2E2E2E2E2E2E2F5E2E2E2E2E2E2E2E2E2E2E2E2E2E2F5F5F5F5F5F5F5F5F5F5F5F5F5F5F5F5F5F5F5F5F5F5F5F5F5F5F5F5F5F5F5F5F5F5F5F5F5F5F5F5F5F5F5F5F5F5F5F5F5F5F5F5F5F5F5F5F5F5F5F5E2E2E2F5
310
E2F5F5F5F5F5F5F5F5F5E2E2E2E2E2E2F5F5F5F5F5F5F5F5F5E2F5F5F5F5F5F5F5F5F5F5F5F5F5F5F5F5E2F5E2E2EFE2F5E2F5F5F5F5F5F5F5F5F5F5F5F5F5F5F5F5E2F5F5F5F5F5E2E2E2E2E2E2E2E2E2E2E2E2E2E2E2E2E2E2E2E2E2E2E2E2E2E2E2E2E2E2E2F5F5F5F5F5F5F5F5F5F5F5F5F5F5F5F5F5F5F5F5F5F5F5F5
310
F5F5F5F5F5F5F5F5F5F5F5F5F5F5F5F5F5F5F5F5F5F5F5F5F5F5F5F5F5F5F5F5F5F5F5F5F5F5F5F5F5F5F5F5F5F5F5F5F5E2E2F5F5E2F5F5F5E2E2E2E2E2E2F5F5F5F5F5F5F5F5F5F5F5F5F5F5F5E2F5F5F5F5F5F5F5F5F5F5F5F5F5F5F5F5E2F5E2E2EFE2F5E2F5F5F5F5F5F5F5F5F5F5F5F5F5F5F5F5E2F5F5F5F5F5F5E2
310
E2E2E2E2E2E2E2E2E2E2E2F5F5F5F5F5F5F5F5F5F5F5F5F5F5F5F5F5F5F5F5F5F5F5F5F5F5F5F5F5F5F5F5F5F5F5F5F5F5F5F5F5F5F5F5F5F5F5F5F5F5F5F5F5F5F5F5F5F5F5F5F5F5F5F5F5F5F5F5F5F5F5F5F5F5F5F5F5F5F5F5F5F5F5F5F5F5F5F5F5F5F5E2E2E2E2E2E2E2E2F5F5F5F5F5F5F5F5F5F5F5F5F5F5F5F5F5
310
F5F5F5F5E2F5F5F5F5F5F5F5F5F5F5F5F5F5F5F5F5E2F5E2E2EFE2F5E2F5F5F5F5F5F5F5F5F5F5F5F5F5F5F5F5E2F5F5F5F5F5F5F5F5F5F5F5F5F5F5F5F5F5F5F5F5F5F5F5F5F5F5F5F5F5F5F5F5F5F5F5F5F5F5F5F5F5F5F5F5F5F5F5F5F5F5F5F5F5F5F5F5F5F5F5F5F5F5F5F5F5F5F5F5F5F5F5F5F5F5F5F5F5F5F5F5F5
310
F5F5F5F5F5F5F5F5F5F5F5F5F5F5F5F5F5F5F5F5F5F5F5F5F5F5F5F5F5F5F5F5F5F5F5F5F5F5F5F5F5F5F5F5F5F5F5F5F5F5F5F5F5F5F5F5F5E2F5F5F5F5F5F5F5F5F5F5F5F5F5F5F5F5E2F5E2E2EFE2F5F5F5F5F5F5F5F5F5F5F5F5F5F5F5F5F5F5E2F5F5F5F5F5F5F5F5F5F5F5F5F5F5F5F5F5F5F5F5F5F5F5F5F5F5F5F5
310
F5F5F5F5F5F5F5F5F5F5F5F5F5F5F5F5F5F5F5F5F5F5F5F5F5F5F5F5F5F5F5F5F5F5F5F5F5F5F5F5F5F5F5F5F5F5F5F5F5F5F5F5F5F5F5F5F5F5F5F5F5F5F5F5F5F5F5F5F5F5F5F5F5F5F5F5F5F5F5F5F5F5F5F5F5F5F5F5F5F5F5F5F5F5F5F5F5F5F5F5F5F5F5F5F5F5F5F5F5F5E2F5F5F5F5F5F5F5F5F5F5F5F5F5F5F5F5
310
F5F5E2E2EFE2F5F5F5F5F5F5F5F5F5F5F5F5F5F5F5F5F5F5E2F5F5F5F5F5F5F5F5F5F5F5F5F5F5F5F5F5F5F5F5F5F5F5F5F5F5F5F5F5F5F5F5F5F5F5F5F5F5F5F5F5F5F5F5F5F5F5F5F5F5F5F5F5F5F5F5F5F5F5F5F5F5F5F5F5F5F5F5F5F5F5F5F5F5F5F5F5F5F5F5F5F5F5F5F5F5F5F5F5F5F5F5F5F5F5F5F5F5F5F5F5F5
310
F5F5F5F5F5F5F5F5F5F5F5F5F5F5F5F5F5F5F5F5F5F5F5F5F5F5F5F5F5F5F5F5F5F5F5F5E2F5F5F5F5F5F5F5F5F5F5F5F5F5F5F5F5F5F5E2E2EFE2F5F5F5F5F5F5F5F5F5F5F5F5F5F5F5F5F5F5E2F5F5F5F5F5F5F5F5F5F5F5F5F5F5F5F5F5F5F5F5F5F5F5F5F5F5F5F5F5F5F5F5F5F5F5F5F5F5F5F5F5F5F5F5F5F5F5F5F5
310
F5F5F5F5F5F5F5F5F5F5F5F5F5F5F5F5F5F5F5F5F5F5F5F5F5F5F5F5F5F5F5F5F5F5F5F5F5F5F5F5F5F5F5F5F5F5F5F5F5F5F5F5F5F5F5F5F5F5F5F5F5F5F5F5F5F5F5F5F5F5F5F5F5F5F5F5F5F5F5F5F5F5F5F5F5F5F5F5F5E2F5F5F5F5F5F5F5F5F5F5F5F5F5F5F5F5F5F5E2E2EFE2F5F5F5F5F5F5F5F5F5F5F5F5F5F5F5
310
F5F5F5E2F5F5F5F5F5F5F5F5F5F5F5F5F5F5F5F5F5F5F5F5F5F5F5F5F5F5F5F5F5F5F5F5F5F5F5F5F5F5F5F5F5F5F5F5F5F5F5F5F5F5F5F5F5F5F5F5F5F5F5F5F5F5F5F5F5F5F5F5F5F5F5F5F5F5F5F5F5F5F5F5F5F5F5F5F5F5F5F5F5F5F5F5F5F5F5F5F5F5F5F5F5F5F5F5F5F5F5F5F5F5F5F5F5F5F5F5F5F5F5F5F5F5F5
310
F5F5F5F5F5F5F5F5F5F5F5F5F5F5F5E2F5F5F5F5F5F5F5F5F5F5F5F5F5F5F5F5F5F5E2E2EFE2F5F5F5F5F5F5F5F5F5F5F5F5F5F5F5F5F5F5E2E2E2E2E2E2E2E2E2E2E2E2E2E2E2E2E2E2E2E2E2E2E2E2E2E2E2E2E2E2E2E2E2E2E2E2E2E2E2E2E2E2E2E2E2E2E2E2E2E2E2E2E2E2E2E2E2E2E2E2E2E2E2E2E2E2E2E2E2E2E2
310
E2E2E2E2E2E2E2E2E2E2E2E2E2E2E2E2E2E2E2E2E2E2E2E2E2E2E2E2E2E2E2E2E2E2E2E2E2E2E2E2E2E2E2E2E2E2E2E2E2E2E2E2E2E2E2E2E2E2E2E2E2E2E2E2E2E2E2E2E2F5F5F5F5F5F5F5F5F5F5F5F5F5F5F5F5F5F5E2E2EFE2F5F5F5F5F5F5F5F5F5F5F5F5F5F5F5F5F5F5F5F5F5F5F5F5F5F5F5F5F5F5F5F5F5F5F5F5
310
F5F5F5F5F5F5F5F5F5F5F5F5F5F5F5F5F5F5F5F5F5F5F5F5F5F5F5F5F5F5F5F5F5F5F5F5F5F5F5F5F5F5F5F5F5F5F5F5F5F5F5F5F5F5F5F5F5F5F5F5F5F5F5F5F5F5F5F5F5F5F5F5F5F5F5F5F5F5F5F5F5F5F5F5F5F5F5F5F5F5F5F5F5F5F5F5F5F5F5F5F5F5F5F5F5F5F5F5F5F5F5F5F5F5F5F5F5F5F5F5F5F5F5F5F5F5F5
310
F5F5F5F5F5F5F5F5F5F5F5F5F5E2E2EFE2F5F5F5F5F5F5F5F5F5F5F5F5F5F5F5F5F5F5F5F5F5F5F5F5F5F5F5F5F5F5F5F5F5F5F5F5F5F5F5F5F5F5F5F5F5F5F5F5F5F5F5F5F5F5F5F5F5F5F5F5F5F5F5F5F5F5F5F5F5F5F5F5F5F5F5F5F5F5F5F5F5F5F5F5F5F5F5F5F5F5F5F5F5F5F5F5F5F5F5F5F5F5F5F5F5F5F5F5F5F5
310
F5F5F5F5F5F5F5F5F5F5F5F5F5F5F5F5F5F5F5F5F5F5F5F5F5F5F5F5F5F5F5F5F5F5F5F5F5F5F5F5F5F5F5F5F5F5F5F5F5F5F5F5F5F5F5F5F5F5F5F5F5F5F5F5F5F5E2E2EFE2F5F5F5F5F5F5F5F5F5F5F5F5F5F5F5F5F5F5F5F5F5F5F5F5F5F5F5F5F5F5F5F5F5F5F5F5F5F5F5F5F5F5F5F5F5F5F5F5F5F5F5F5F5F5F5F5F5
310
F5F5F5F5F5F5F5F5F5F5F5F5F5F5F5F5F5F5F5F5F5F5F5F5F5F5F5F5F5F5F5F5F5F5F5F5F5F5F5F5F5F5F5F5F5F5F5F5F5F5F5F5F5F5F5F5F5F5F5F5F5F5F5F5F5F5F5F5F5F5F5F5F5F5F5F5F5F5F5F5F5F5F5F5F5F5F5F5F5F5F5F5F5F5F5F5F5F5F5F5F5F5F5F5F5F5F5F5F5F5F5F5F5F5F5F5F5F5F5E2E2EFE2F5F5F5F5
310
F5F5F5F5F5F5F5F5F5F5F5F5F5F5F5F5F5F5F5F5F5F5F5F5F5F5F5F5F5F5F5F5F5F5F5F5F5F5F5F5F5F5F5F5F5F5F5F5F5F5F5F5F5F5F5F5F5F5F5F5F5F5F5F5F5F5F5F5F5F5F5F5F5F5F5F5F5F5F5F5F5F5F5F5F5F5F5F5F5F5F5F5F5F5F5F5F5F5F5F5F5F5F5F5F5F5F5F5F5F5F5F5F5F5F5F5F5F5F5F5F5F5F5F5F5F5F5
310
F5F5F5F5F5F5F5F5F5F5F5F5F5F5F5F5F5F5F5F5F5F5F5F5F5F5F5F5F5F5F5F5F5F5F5F5F5F5F5F5F5F5F5F5F5E2E2EFE2F5F5F5F5F5F5F5F5F5F5F5F5F5F5F5F5F5F5F5F5F5F5F5F5F5F5F5F5F5F5F5F5F5F5F5F5F5F5F5F5F5F5F5F5F5F5F5F5F5F5F5F5F5F5F5F5F5F5F5F5F5F5F5F5F5F5F5F5F5F5F5F5F5F5F5F5F5F5
310
F5F5F5F5F5F5F5F5F5F5F5F5F5F5F5F5F5F5F5F5F5F5F5F5F5F5F5F5F5F5F5F5F5F5F5F5F5F5F5F5F5F5F5F5F5F5F5F5F5F5F5F5F5F5F5F5F5F5F5F5F5F5F5F5F5F5F5F5F5F5F5F5F5F5F5F5F5F5F5F5F5F5F5F5F5F5F5F5F5F5F5F5F5F5F5F5F5F5E2E2EFE2F5E2F5F5F5F5F5F5F5F5F5F5F5F5F5F5F5F5F5F5F5F5F5F5F5
310
F5F5F5F5F5F5F5F5F5F5F5F5F5F5F5F5F5F5F5F5F5F5F5F5F5F5F5F5F5F5F5F5F5F5F5F5F5F5F5F5F5F5F5F5F5F5F5F5F5F5F5F5F5F5F5F5F5F5F5F5F5F5F5F5F5F5F5F5F5F5F5F5F5F5F5F5F5F5F5F5F5F5F5F5F5F5F5F5F5F5F5F5F5F5F5F5F5F5F5F5F5F5F5F5F5F5F5F5F5F5F5F5F5F5F5F5F5F5F5F5F5F5F5F5F5F5F5
310
F5F5F5F5F5F5F5F5F5F5F5F5F5F5F5F5F5F5F5F5F5F5E2F5E2E2EFE2F5E2F5F5F5F5F5F5F5F5F5F5F5F5F5F5F5F5F5F5F5F5F5F5F5F5F5F5F5F5F5F5F5F5F5F5F5F5F5F5F5F5F5F5F5F5F5F5F5F5F5F5F5F5F5F5F5F5F5F5F5F5F5F5F5F5F5F5F5F5F5F5F5F5F5F5F5F5F5F5F5F5F5F5F5F5F5F5F5F5F5F5F5F5F5F5F5F5F5
310
F5F5F5F5F5F5F5F5F5F5F5F5F5F5F5F5F5F5F5F5F5F5F5F5F5F5F5F5F5F5F5F5F5F5F5F5F5F5F5F5F5F5F5F5F5F5F5F5F5F5F5F5F5F5F5F5F5F5F5F5F5F5F5F5F5F5F5F5F5F5F5F5F5F5F5E2F5E2E2EFE2F5E2F5F5F5F5F5F5F5F5F5F5F5F5F5F5F5F5F5F5F5F5F5F5F5F5F5F5F5F5F5F5F5F5F5F5F5F5F5F5F5F5F5F5F5F5
310
F5F5F5F5F5F5F5F5F5F5F5F5F5F5F5F5F5F5F5F5F5F5F5F5F5F5F5F5F5F5F5F5F5F5F5F5F5F5F5F5F5F5F5F5F5F5F5F5F5F5F5F5F5F5F5F5F5F5F5F5F5F5F5F5F5F5F5F5F5F5F5F5F5F5F5F5F5F5F5F5F5F5F5F5F5F5F5F5F5F5F5F5F5F5F5F5F5F5F5F5F5F5F5F5F5F5F5F5F5F5F5F5F5F5F5F5F5F5F5F5F5F5F5F5F5F5F5
310
F5E2F5E2E2EFE2F5E2F5F5F5F5F5F5F5F5F5F5F5F5F5F5F5F5F5F5F5F5F5F5F5F5F5F5F5F5F5F5F5F5F5F5F5F5F5F5F5F5F5F5F5F5F5F5F5F5F5F5F5F5F5F5F5F5F5F5F5F5F5F5F5F5F5F5F5F5F5F5F5F5F5F5F5F5F5F5F5F5F5F5F5F5F5F5F5F5F5F5F5F5F5F5F5F5F5F5F5F5F5F5F5F5F5F5F5F5F5F5F5F5F5F5F5F5F5F5
310
F5F5F5F5F5F5F5F5F5F5F5F5F5F5F5F5F5F5F5F5F5F5F5F5F5F5F5F5F5F5F5F5F5F5F5F5F5F5F5F5F5F5F5F5F5F5F5F5F5F5F5F5F5F5E2F5E2E2EFE2F5E2F5F5F5F5F5F5F5F5F5F5F5F5F5F5F5F5F5F5F5F5F5F5F5F5F5F5F5F5F5F5F5F5F5F5F5F5F5F5F5F5F5F5F5F5F5F5F5F5F5F5F5F5F5F5F5F5F5F5F5F5F5F5F5F5F5
310
F5F5F5F5F5F5F5F5F5F5F5F5F5F5F5F5F5F5F5F5F5F5F5F5F5F5F5F5F5F5F5F5F5F5F5F5F5F5F5F5F5F5F5F5F5F5F5F5F5F5F5F5F5F5F5F5F5F5F5F5F5F5F5F5F5F5F5F5F5F5F5F5F5F5F5F5F5F5F5F5F5F5F5F5F5F5F5F5F5F5F5F5F5F5F5F5F5F5F5F5F5F5F5F5F5F5F5E2F5E2E2EFE2F5E2F5F5F5F5F5F5F5F5F5F5F5F5
310
F5F5F5F5F5F5F5F5F5F5F5F5F5F5F5F5F5F5F5F5F5F5F5F5F5F5F5F5F5F5F5F5F5F5F5F5F5F5F5F5F5F5F5F5F5F5F5F5F5F5F5F5F5F5F5F5F5F5F5F5F5F5F5F5F5F5F5F5F5F5F5F5F5F5F5F5F5F5F5F5F5F5F5F5F5F5F5F5F5F5F5F5F5F5F5F5F5F5F5F5F5F5F5F5F5F5F5F5F5F5F5F5F5F5F5F5F5F5F5F5F5F5F5F5F5F5F5
310
F5F5F5F5F5F5F5F5F5F5F5F5F5F5F5F5F5F5F5F5F5F5F5F5F5F5F5F5F5F5F5F5F5E2F5E2E2EFE2F5E2F5F5F5F5F5F5F5F5F5F5F5F5F5F5F5F5F5F5F5F5F5F5F5F5F5F5F5F5F5F5F5F5F5F5F5F5F5F5F5F5F5F5F5F5F5F5F5F5F5F5F5F5F5F5F5F5F5F5F5F5F5F5F5F5F5F5F5F5F5F5F5F5F5F5F5F5F5F5F5F5F5F5F5F5F5F5
310
F5F5F5F5F5F5F5F5F5F5F5F5F5F5F5F5F5F5F5F5F5F5F5F5F5F5F5F5F5F5F5F5F5F5F5F5F5F5F5F5F5F5F5F5F5F5F5F5F5F5F5F5F5F5F5F5F5F5F5F5F5F5F5F5F5F5F5F5F5F5F5F5F5F5F5F5F5F5F5F5F5F5F5F5F5F5E2F5E2E2EFE2F5E2F5F5F5F5F5F5F5F5F5F5F5F5F5F5F5F5F5F5F5F5F5F5F5F5F5F5F5F5F5F5F5F5F5
310
F5F5F5F5F5F5F5F5F5F5F5F5F5F5F5F5F5F5F5F5F5F5F5F5F5F5F5F5F5F5F5F5F5F5F5F5F5F5F5F5F5F5F5F5F5F5F5F5F5F5F5F5F5F5F5F5F5F5F5F5F5F5F5F5F5F5F5F5F5F5F5F5F5F5F5F5F5F5F5F5F5F5F5F5F5F5F5F5F5F5F5F5F5F5F5F5F5F5F5F5F5F5F5F5F5F5F5F5F5F5F5F5F5F5F5F5F5F5F5F5F5F5F5F5F5F5F5
310
F5F5F5F5F5F5F5F5F5F5F5F5E2F5E2E2EFE2F5E2E2E2E2E2E2E2E2F5F5F5F5F5F5F5F5F5E2E2E2E2E2E2E2E2E2E2E2E2E2E2E2E2F5F5F5F5F5F5F5F5F5E2E2E2E2E2E2E2E2E2E2E2E2E2E2E2E2F5F5F5F5F5F5F5F5F5E2E2E2E2E2E2E2E2E2E2E2E2E2E2E2E2F5F5F5F5F5F5F5F5E2E2E2E2E2E2E2E2E2E2E2E2E2E2E2E2F5
310
F5F5F5F5F5F5F5F5E2E2E2E2E2E2E2E2E2E2E2E2E2E2E2E2F5F5F5F5F5F5F5F5F5E2E2E2E2E2E2E2E2E2E2E2E2E2E2E2E2F5F5F5F5F5F5F5F5F5E2E2E2E2E2E2E2E2F5E2EFEFE2F5F5F5F5F5F5F5F5F5F5F5F5F5F5F5F5F5F5F5F5F5F5F5F5F5F5F5F5F5F5F5F5F5F5F5F5F5F5F5F5F5F5F5F5F5F5F5F5F5F5F5F5F5F5F5F5
310
F5F5F5F5F5F5F5F5F5F5F5F5F5F5F5F5F5F5F5F5F5F5F5F5F5F5F5F5F5F5F5F5F5F5F5F5F5F5F5F5F5F5F5F5F5F5F5F5F5F5F5F5F5F5F5F5F5F5F5F5F5F5F5F5F5F5F5F5F5F5F5F5F5F5F5F5F5F5F5F5F5F5F5F5F5F5F5F5F5F5F5F5F5F5F5F5F5F5F5F5F5F5F5F5F5F5F5F5F5F5F5F5F5F5F5F5F5F5F5F5E2EFEF
  0
XRECORD
  5
18F99
102
{ACAD_REACTORS
330
18F98
102
}
330
18F98
100
AcDbXrecord
280
     1
102
SHADEPLOT
 70
     0
102
SHADEPLOTRESLEVEL
 70
     2
102
SHADEPLOTCUSTOMDPI
 70
   300
  0
XRECORD
  5
18FA2
102
{ACAD_REACTORS
330
18FA1
102
}
330
18FA1
100
AcDbXrecord
280
     1
102
MATERIAL
148
0.0
149
0.0
149
0.0
 93
        0
 94
       63
282
     0
 72
     1
 77
     1
171
     1
175
     1
179
     1
273
     0
  0
XRECORD
  5
18FA0
102
{ACAD_REACTORS
330
18F9F
102
}
330
18F9F
100
AcDbXrecord
280
     1
102
MATERIAL
148
0.0
149
0.0
149
0.0
 93
        0
 94
       63
282
     0
 72
     1
 77
     1
171
     1
175
     1
179
     1
273
     0
  0
XRECORD
  5
18F9C
102
{ACAD_REACTORS
330
18F9B
102
}
330
18F9B
100
AcDbXrecord
280
     1
102
MATERIAL
148
0.0
149
0.0
149
0.0
 93
        0
 94
       63
282
     0
 72
     1
 77
     1
171
     1
175
     1
179
     1
273
     0
  0
XRECORD
  5
18F90
102
{ACAD_REACTORS
330
18F8F
102
}
330
18F8F
100
AcDbXrecord
280
     1
102
ACAD_ROUNDTRIP_2012_MLEADER_STYLE
298
     1
  0
XRECORD
  5
18F9E
102
{ACAD_REACTORS
330
18F9D
102
}
330
18F9D
100
AcDbXrecord
280
     1
102
SHADEPLOT
 70
     0
102
SHADEPLOTRESLEVEL
 70
     2
102
SHADEPLOTCUSTOMDPI
 70
   300
  0
CELLSTYLEMAP
  5
18F8E
102
{ACAD_REACTORS
330
18F8D
102
}
330
18F8D
100
AcDbCellStyleMap
 90
        3
300
CELLSTYLE
  1
TABLEFORMAT_BEGIN
 90
        5
170
     1
 91
        0
 92
    32768
 62
   257
 93
        1
300
CONTENTFORMAT
  1
CONTENTFORMAT_BEGIN
 90
        0
 91
        0
 92
        4
 93
        0
300

 40
0.0
140
1.0
 94
        5
 62
     0
340
11
144
0.25
309
CONTENTFORMAT_END
171
     0
 94
        6
 95
        1
302
GRIDFORMAT
  1
GRIDFORMAT_BEGIN
 90
        0
 91
        1
 62
     0
 92
       -2
340
0
 93
        0
 40
0.045
309
GRIDFORMAT_END
 95
        2
302
GRIDFORMAT
  1
GRIDFORMAT_BEGIN
 90
        0
 91
        1
 62
     0
 92
       -2
340
0
 93
        0
 40
0.045
309
GRIDFORMAT_END
 95
        4
302
GRIDFORMAT
  1
GRIDFORMAT_BEGIN
 90
        0
 91
        1
 62
     0
 92
       -2
340
0
 93
        0
 40
0.045
309
GRIDFORMAT_END
 95
        8
302
GRIDFORMAT
  1
GRIDFORMAT_BEGIN
 90
        0
 91
        1
 62
     0
 92
       -2
340
0
 93
        0
 40
0.045
309
GRIDFORMAT_END
 95
       16
302
GRIDFORMAT
  1
GRIDFORMAT_BEGIN
 90
        0
 91
        1
 62
     0
 92
       -2
340
0
 93
        0
 40
0.045
309
GRIDFORMAT_END
 95
       32
302
GRIDFORMAT
  1
GRIDFORMAT_BEGIN
 90
        0
 91
        1
 62
     0
 92
       -2
340
0
 93
        0
 40
0.045
309
GRIDFORMAT_END
309
TABLEFORMAT_END
  1
CELLSTYLE_BEGIN
 90
        1
 91
        1
300
_TITLE
309
CELLSTYLE_END
300
CELLSTYLE
  1
TABLEFORMAT_BEGIN
 90
        5
170
     1
 91
        0
 92
        0
 62
   257
 93
        1
300
CONTENTFORMAT
  1
CONTENTFORMAT_BEGIN
 90
        0
 91
        0
 92
        4
 93
        0
300

 40
0.0
140
1.0
 94
        5
 62
     0
340
11
144
0.18
309
CONTENTFORMAT_END
171
     0
 94
        6
 95
        1
302
GRIDFORMAT
  1
GRIDFORMAT_BEGIN
 90
        0
 91
        1
 62
     0
 92
       -2
340
0
 93
        0
 40
0.045
309
GRIDFORMAT_END
 95
        2
302
GRIDFORMAT
  1
GRIDFORMAT_BEGIN
 90
        0
 91
        1
 62
     0
 92
       -2
340
0
 93
        0
 40
0.045
309
GRIDFORMAT_END
 95
        4
302
GRIDFORMAT
  1
GRIDFORMAT_BEGIN
 90
        0
 91
        1
 62
     0
 92
       -2
340
0
 93
        0
 40
0.045
309
GRIDFORMAT_END
 95
        8
302
GRIDFORMAT
  1
GRIDFORMAT_BEGIN
 90
        0
 91
        1
 62
     0
 92
       -2
340
0
 93
        0
 40
0.045
309
GRIDFORMAT_END
 95
       16
302
GRIDFORMAT
  1
GRIDFORMAT_BEGIN
 90
        0
 91
        1
 62
     0
 92
       -2
340
0
 93
        0
 40
0.045
309
GRIDFORMAT_END
 95
       32
302
GRIDFORMAT
  1
GRIDFORMAT_BEGIN
 90
        0
 91
        1
 62
     0
 92
       -2
340
0
 93
        0
 40
0.045
309
GRIDFORMAT_END
309
TABLEFORMAT_END
  1
CELLSTYLE_BEGIN
 90
        2
 91
        1
300
_HEADER
309
CELLSTYLE_END
300
CELLSTYLE
  1
TABLEFORMAT_BEGIN
 90
        5
170
     1
 91
        0
 92
        0
 62
   257
 93
        1
300
CONTENTFORMAT
  1
CONTENTFORMAT_BEGIN
 90
        0
 91
        0
 92
        4
 93
        0
300

 40
0.0
140
1.0
 94
        2
 62
     0
340
11
144
0.18
309
CONTENTFORMAT_END
171
     0
 94
        6
 95
        1
302
GRIDFORMAT
  1
GRIDFORMAT_BEGIN
 90
        0
 91
        1
 62
     0
 92
       -2
340
0
 93
        0
 40
0.045
309
GRIDFORMAT_END
 95
        2
302
GRIDFORMAT
  1
GRIDFORMAT_BEGIN
 90
        0
 91
        1
 62
     0
 92
       -2
340
0
 93
        0
 40
0.045
309
GRIDFORMAT_END
 95
        4
302
GRIDFORMAT
  1
GRIDFORMAT_BEGIN
 90
        0
 91
        1
 62
     0
 92
       -2
340
0
 93
        0
 40
0.045
309
GRIDFORMAT_END
 95
        8
302
GRIDFORMAT
  1
GRIDFORMAT_BEGIN
 90
        0
 91
        1
 62
     0
 92
       -2
340
0
 93
        0
 40
0.045
309
GRIDFORMAT_END
 95
       16
302
GRIDFORMAT
  1
GRIDFORMAT_BEGIN
 90
        0
 91
        1
 62
     0
 92
       -2
340
0
 93
        0
 40
0.045
309
GRIDFORMAT_END
 95
       32
302
GRIDFORMAT
  1
GRIDFORMAT_BEGIN
 90
        0
 91
        1
 62
     0
 92
       -2
340
0
 93
        0
 40
0.045
309
GRIDFORMAT_END
309
TABLEFORMAT_END
  1
CELLSTYLE_BEGIN
 90
        3
 91
        2
300
_DATA
309
CELLSTYLE_END
  0
XRECORD
  5
18F9A
102
{ACAD_REACTORS
330
18F8D
102
}
330
18F8D
100
AcDbXrecord
280
     1
102
ACAD_ROUNDTRIP_PRE2007_TABLESTYLE
 90
        4
 91
        0
  1

 92
        4
 93
        0
  2

 94
        4
 95
        0
  3

  0
XRECORD
  5
18FAE
102
{ACAD_REACTORS
330
18FAD
102
}
330
18FAD
100
AcDbXrecord
280
     1
102
RTVSPropertyOp0
 70
     1
102
RTVSPropertyOp1
 70
     1
102
RTVSPropertyOp2
 70
     1
102
RTVSPropertyOp3
 70
     1
102
RTVSPropertyOp4
 70
     1
102
RTVSPropertyOp5
 70
     1
102
RTVSPropertyOp6
 70
     1
102
RTVSPropertyOp7
 70
     1
102
RTVSPropertyOp8
 70
     1
102
RTVSPropertyOp9
 70
     1
102
RTVSPropertyOp10
 70
     1
102
RTVSPropertyOp11
 70
     1
102
RTVSPropertyOp12
 70
     1
102
RTVSPropertyOp13
 70
     1
102
RTVSPropertyOp14
 70
     1
102
RTVSPropertyOp15
 70
     1
102
RTVSPropertyOp16
 70
     1
102
RTVSPropertyOp17
 70
     1
102
RTVSPropertyOp18
 70
     1
102
RTVSPropertyOp19
 70
     1
102
RTVSPropertyOp20
 70
     1
102
RTVSPropertyOp21
 70
     1
102
RTVSPropertyOp22
 70
     1
102
RTVSPropertyOp23
 70
     1
102
RTVSPropertyOp24
 70
     1
102
RTVSPropertyOp25
 70
     1
102
RTVSPropertyOp26
 70
     1
102
RTVSPropertyOp27
 70
     1
102
RTVSPropertyOp28
 70
     1
102
RTVSPropertyOp29
 70
     1
102
RTVSPropertyOp30
 70
     1
102
RTVSPropertyOp31
 70
     1
102
RTVSPropertyOp32
 70
     1
  0
XRECORD
  5
18FAC
102
{ACAD_REACTORS
330
18FAB
102
}
330
18FAB
100
AcDbXrecord
280
     1
102
RTVSPropertyOp0
 70
     1
102
RTVSPropertyOp1
 70
     1
102
RTVSPropertyOp2
 70
     1
102
RTVSPropertyOp3
 70
     1
102
RTVSPropertyOp4
 70
     1
102
RTVSPropertyOp5
 70
     1
102
RTVSPropertyOp6
 70
     1
102
RTVSPropertyOp7
 70
     1
102
RTVSPropertyOp8
 70
     1
102
RTVSPropertyOp9
 70
     1
102
RTVSPropertyOp10
 70
     1
102
RTVSPropertyOp11
 70
     1
102
RTVSPropertyOp12
 70
     1
102
RTVSPropertyOp13
 70
     1
102
RTVSPropertyOp14
 70
     1
102
RTVSPropertyOp15
 70
     1
102
RTVSPropertyOp16
 70
     1
102
RTVSPropertyOp17
 70
     1
102
RTVSPropertyOp18
 70
     1
102
RTVSPropertyOp19
 70
     1
102
RTVSPropertyOp20
 70
     1
102
RTVSPropertyOp21
 70
     1
102
RTVSPropertyOp22
 70
     1
102
RTVSPropertyOp23
 70
     1
102
RTVSPropertyOp24
 70
     1
102
RTVSPropertyOp25
 70
     1
102
RTVSPropertyOp26
 70
     1
102
RTVSPropertyOp27
 70
     1
102
RTVSPropertyOp28
 70
     1
102
RTVSPropertyOp29
 70
     1
102
RTVSPropertyOp30
 70
     1
102
RTVSPropertyOp31
 70
     1
102
RTVSPropertyOp32
 70
     1
  0
XRECORD
  5
18FB2
102
{ACAD_REACTORS
330
18FB1
102
}
330
18FB1
100
AcDbXrecord
280
     1
102
RTVSPropertyOp0
 70
     1
102
RTVSPropertyOp1
 70
     1
102
RTVSPropertyOp2
 70
     1
102
RTVSPropertyOp3
 70
     1
102
RTVSPropertyOp4
 70
     1
102
RTVSPropertyOp5
 70
     1
102
RTVSPropertyOp6
 70
     1
102
RTVSPropertyOp7
 70
     1
102
RTVSPropertyOp8
 70
     1
102
RTVSPropertyOp9
 70
     1
102
RTVSPropertyOp10
 70
     1
102
RTVSPropertyOp11
 70
     1
102
RTVSPropertyOp12
 70
     1
102
RTVSPropertyOp13
 70
     1
102
RTVSPropertyOp14
 70
     1
102
RTVSPropertyOp15
 70
     1
102
RTVSPropertyOp16
 70
     1
102
RTVSPropertyOp17
 70
     1
102
RTVSPropertyOp18
 70
     1
102
RTVSPropertyOp19
 70
     1
102
RTVSPropertyOp20
 70
     1
102
RTVSPropertyOp21
 70
     1
102
RTVSPropertyOp22
 70
     1
102
RTVSPropertyOp23
 70
     1
102
RTVSPropertyOp24
 70
     1
102
RTVSPropertyOp25
 70
     1
102
RTVSPropertyOp26
 70
     1
102
RTVSPropertyOp27
 70
     1
102
RTVSPropertyOp28
 70
     1
102
RTVSPropertyOp29
 70
     1
102
RTVSPropertyOp30
 70
     1
102
RTVSPropertyOp31
 70
     1
102
RTVSPropertyOp32
 70
     1
  0
XRECORD
  5
18FBA
102
{ACAD_REACTORS
330
18FB9
102
}
330
18FB9
100
AcDbXrecord
280
     1
102
RTVSPropertyOp0
 70
     1
102
RTVSPropertyOp1
 70
     1
102
RTVSPropertyOp2
 70
     1
102
RTVSPropertyOp3
 70
     1
102
RTVSPropertyOp4
 70
     1
102
RTVSPropertyOp5
 70
     1
102
RTVSPropertyOp6
 70
     1
102
RTVSPropertyOp7
 70
     1
102
RTVSPropertyOp8
 70
     1
102
RTVSPropertyOp9
 70
     1
102
RTVSPropertyOp10
 70
     1
102
RTVSPropertyOp11
 70
     1
102
RTVSPropertyOp12
 70
     1
102
RTVSPropertyOp13
 70
     1
102
RTVSPropertyOp14
 70
     1
102
RTVSPropertyOp15
 70
     1
102
RTVSPropertyOp16
 70
     1
102
RTVSPropertyOp17
 70
     1
102
RTVSPropertyOp18
 70
     1
102
RTVSPropertyOp19
 70
     1
102
RTVSPropertyOp20
 70
     1
102
RTVSPropertyOp21
 70
     1
102
RTVSPropertyOp22
 70
     1
102
RTVSPropertyOp23
 70
     1
102
RTVSPropertyOp24
 70
     1
102
RTVSPropertyOp25
 70
     1
102
RTVSPropertyOp26
 70
     1
102
RTVSPropertyOp27
 70
     1
102
RTVSPropertyOp28
 70
     1
102
RTVSPropertyOp29
 70
     1
102
RTVSPropertyOp30
 70
     1
102
RTVSPropertyOp31
 70
     1
102
RTVSPropertyOp32
 70
     1
  0
XRECORD
  5
18FC5
102
{ACAD_REACTORS
330
18FC4
102
}
330
18FC4
100
AcDbXrecord
280
     1
102
RTVSPropertyOp0
 70
     1
102
RTVSPropertyOp1
 70
     1
102
RTVSPropertyOp2
 70
     1
102
RTVSPropertyOp3
 70
     1
102
RTVSPropertyOp4
 70
     1
102
RTVSPropertyOp5
 70
     1
102
RTVSPropertyOp6
 70
     1
102
RTVSPropertyOp7
 70
     1
102
RTVSPropertyOp8
 70
     1
102
RTVSPropertyOp9
 70
     1
102
RTVSPropertyOp10
 70
     1
102
RTVSPropertyOp11
 70
     1
102
RTVSPropertyOp12
 70
     1
102
RTVSPropertyOp13
 70
     1
102
RTVSPropertyOp14
 70
     1
102
RTVSPropertyOp15
 70
     1
102
RTVSPropertyOp16
 70
     1
102
RTVSPropertyOp17
 70
     1
102
RTVSPropertyOp18
 70
     1
102
RTVSPropertyOp19
 70
     1
102
RTVSPropertyOp20
 70
     1
102
RTVSPropertyOp21
 70
     1
102
RTVSPropertyOp22
 70
     1
102
RTVSPropertyOp23
 70
     1
102
RTVSPropertyOp24
 70
     1
102
RTVSPropertyOp25
 70
     1
102
RTVSPropertyOp26
 70
     1
102
RTVSPropertyOp27
 70
     1
102
RTVSPropertyOp28
 70
     1
102
RTVSPropertyOp29
 70
     1
102
RTVSPropertyOp30
 70
     1
102
RTVSPropertyOp31
 70
     1
102
RTVSPropertyOp32
 70
     1
  0
XRECORD
  5
18FB0
102
{ACAD_REACTORS
330
18FAF
102
}
330
18FAF
100
AcDbXrecord
280
     1
102
RTVSPropertyOp0
 70
     1
102
RTVSPropertyOp1
 70
     1
102
RTVSPropertyOp2
 70
     1
102
RTVSPropertyOp3
 70
     1
102
RTVSPropertyOp4
 70
     1
102
RTVSPropertyOp5
 70
     1
102
RTVSPropertyOp6
 70
     1
102
RTVSPropertyOp7
 70
     1
102
RTVSPropertyOp8
 70
     1
102
RTVSPropertyOp9
 70
     1
102
RTVSPropertyOp10
 70
     1
102
RTVSPropertyOp11
 70
     1
102
RTVSPropertyOp12
 70
     1
102
RTVSPropertyOp13
 70
     1
102
RTVSPropertyOp14
 70
     1
102
RTVSPropertyOp15
 70
     1
102
RTVSPropertyOp16
 70
     1
102
RTVSPropertyOp17
 70
     1
102
RTVSPropertyOp18
 70
     1
102
RTVSPropertyOp19
 70
     1
102
RTVSPropertyOp20
 70
     1
102
RTVSPropertyOp21
 70
     1
102
RTVSPropertyOp22
 70
     1
102
RTVSPropertyOp23
 70
     1
102
RTVSPropertyOp24
 70
     1
102
RTVSPropertyOp25
 70
     1
102
RTVSPropertyOp26
 70
     1
102
RTVSPropertyOp27
 70
     1
102
RTVSPropertyOp28
 70
     1
102
RTVSPropertyOp29
 70
     1
102
RTVSPropertyOp30
 70
     1
102
RTVSPropertyOp31
 70
     1
102
RTVSPropertyOp32
 70
     1
  0
XRECORD
  5
18FD7
102
{ACAD_REACTORS
330
18FD6
102
}
330
18FD6
100
AcDbXrecord
280
     1
102
RTVSPropertyOp0
 70
     0
102
RTVSPropertyOp1
 70
     0
102
RTVSPropertyOp2
 70
     0
102
RTVSPropertyOp3
 70
     0
102
RTVSPropertyOp4
 70
     0
102
RTVSPropertyOp5
 70
     0
102
RTVSPropertyOp6
 70
     0
102
RTVSPropertyOp7
 70
     0
102
RTVSPropertyOp8
 70
     0
102
RTVSPropertyOp9
 70
     0
102
RTVSPropertyOp10
 70
     0
102
RTVSPropertyOp11
 70
     0
102
RTVSPropertyOp12
 70
     0
102
RTVSPropertyOp13
 70
     0
102
RTVSPropertyOp14
 70
     2
102
RTVSPropertyOp15
 70
     0
102
RTVSPropertyOp16
 70
     0
102
RTVSPropertyOp17
 70
     0
102
RTVSPropertyOp18
 70
     0
102
RTVSPropertyOp19
 70
     0
102
RTVSPropertyOp20
 70
     0
102
RTVSPropertyOp21
 70
     0
102
RTVSPropertyOp22
 70
     0
102
RTVSPropertyOp23
 70
     0
102
RTVSPropertyOp24
 70
     0
102
RTVSPropertyOp25
 70
     0
102
RTVSPropertyOp26
 70
     0
102
RTVSPropertyOp27
 70
     0
102
RTVSPropertyOp28
 70
     0
102
RTVSPropertyOp29
 70
     0
102
RTVSPropertyOp30
 70
     0
102
RTVSPropertyOp31
 70
     0
102
RTVSPropertyOp32
 70
     0
  0
XRECORD
  5
18FB8
102
{ACAD_REACTORS
330
18FB7
102
}
330
18FB7
100
AcDbXrecord
280
     1
102
RTVSPropertyOp0
 70
     1
102
RTVSPropertyOp1
 70
     1
102
RTVSPropertyOp2
 70
     1
102
RTVSPropertyOp3
 70
     1
102
RTVSPropertyOp4
 70
     1
102
RTVSPropertyOp5
 70
     1
102
RTVSPropertyOp6
 70
     1
102
RTVSPropertyOp7
 70
     1
102
RTVSPropertyOp8
 70
     1
102
RTVSPropertyOp9
 70
     1
102
RTVSPropertyOp10
 70
     1
102
RTVSPropertyOp11
 70
     1
102
RTVSPropertyOp12
 70
     1
102
RTVSPropertyOp13
 70
     1
102
RTVSPropertyOp14
 70
     1
102
RTVSPropertyOp15
 70
     1
102
RTVSPropertyOp16
 70
     1
102
RTVSPropertyOp17
 70
     1
102
RTVSPropertyOp18
 70
     1
102
RTVSPropertyOp19
 70
     1
102
RTVSPropertyOp20
 70
     1
102
RTVSPropertyOp21
 70
     1
102
RTVSPropertyOp22
 70
     1
102
RTVSPropertyOp23
 70
     1
102
RTVSPropertyOp24
 70
     1
102
RTVSPropertyOp25
 70
     1
102
RTVSPropertyOp26
 70
     1
102
RTVSPropertyOp27
 70
     1
102
RTVSPropertyOp28
 70
     1
102
RTVSPropertyOp29
 70
     1
102
RTVSPropertyOp30
 70
     1
102
RTVSPropertyOp31
 70
     1
102
RTVSPropertyOp32
 70
     1
  0
XRECORD
  5
18FA4
102
{ACAD_REACTORS
330
18FA3
102
}
330
18FA3
100
AcDbXrecord
280
     1
102
RTVSPropertyOp0
 70
     1
102
RTVSPropertyOp1
 70
     1
102
RTVSPropertyOp2
 70
     1
102
RTVSPropertyOp3
 70
     1
102
RTVSPropertyOp4
 70
     1
102
RTVSPropertyOp5
 70
     1
102
RTVSPropertyOp6
 70
     1
102
RTVSPropertyOp7
 70
     1
102
RTVSPropertyOp8
 70
     1
102
RTVSPropertyOp9
 70
     1
102
RTVSPropertyOp10
 70
     1
102
RTVSPropertyOp11
 70
     1
102
RTVSPropertyOp12
 70
     1
102
RTVSPropertyOp13
 70
     1
102
RTVSPropertyOp14
 70
     1
102
RTVSPropertyOp15
 70
     1
102
RTVSPropertyOp16
 70
     1
102
RTVSPropertyOp17
 70
     1
102
RTVSPropertyOp18
 70
     1
102
RTVSPropertyOp19
 70
     1
102
RTVSPropertyOp20
 70
     1
102
RTVSPropertyOp21
 70
     1
102
RTVSPropertyOp22
 70
     1
102
RTVSPropertyOp23
 70
     1
102
RTVSPropertyOp24
 70
     1
102
RTVSPropertyOp25
 70
     1
102
RTVSPropertyOp26
 70
     1
102
RTVSPropertyOp27
 70
     1
102
RTVSPropertyOp28
 70
     1
102
RTVSPropertyOp29
 70
     1
102
RTVSPropertyOp30
 70
     1
102
RTVSPropertyOp31
 70
     1
102
RTVSPropertyOp32
 70
     1
  0
XRECORD
  5
18FA6
102
{ACAD_REACTORS
330
18FA5
102
}
330
18FA5
100
AcDbXrecord
280
     1
102
RTVSPropertyOp0
 70
     1
102
RTVSPropertyOp1
 70
     1
102
RTVSPropertyOp2
 70
     1
102
RTVSPropertyOp3
 70
     1
102
RTVSPropertyOp4
 70
     1
102
RTVSPropertyOp5
 70
     1
102
RTVSPropertyOp6
 70
     1
102
RTVSPropertyOp7
 70
     1
102
RTVSPropertyOp8
 70
     1
102
RTVSPropertyOp9
 70
     1
102
RTVSPropertyOp10
 70
     1
102
RTVSPropertyOp11
 70
     1
102
RTVSPropertyOp12
 70
     1
102
RTVSPropertyOp13
 70
     1
102
RTVSPropertyOp14
 70
     1
102
RTVSPropertyOp15
 70
     1
102
RTVSPropertyOp16
 70
     1
102
RTVSPropertyOp17
 70
     1
102
RTVSPropertyOp18
 70
     1
102
RTVSPropertyOp19
 70
     1
102
RTVSPropertyOp20
 70
     1
102
RTVSPropertyOp21
 70
     1
102
RTVSPropertyOp22
 70
     1
102
RTVSPropertyOp23
 70
     1
102
RTVSPropertyOp24
 70
     1
102
RTVSPropertyOp25
 70
     1
102
RTVSPropertyOp26
 70
     1
102
RTVSPropertyOp27
 70
     1
102
RTVSPropertyOp28
 70
     1
102
RTVSPropertyOp29
 70
     1
102
RTVSPropertyOp30
 70
     1
102
RTVSPropertyOp31
 70
     1
102
RTVSPropertyOp32
 70
     1
  0
XRECORD
  5
18FA8
102
{ACAD_REACTORS
330
18FA7
102
}
330
18FA7
100
AcDbXrecord
280
     1
102
RTVSPropertyOp0
 70
     1
102
RTVSPropertyOp1
 70
     1
102
RTVSPropertyOp2
 70
     1
102
RTVSPropertyOp3
 70
     1
102
RTVSPropertyOp4
 70
     1
102
RTVSPropertyOp5
 70
     1
102
RTVSPropertyOp6
 70
     1
102
RTVSPropertyOp7
 70
     1
102
RTVSPropertyOp8
 70
     1
102
RTVSPropertyOp9
 70
     1
102
RTVSPropertyOp10
 70
     1
102
RTVSPropertyOp11
 70
     1
102
RTVSPropertyOp12
 70
     1
102
RTVSPropertyOp13
 70
     1
102
RTVSPropertyOp14
 70
     1
102
RTVSPropertyOp15
 70
     1
102
RTVSPropertyOp16
 70
     1
102
RTVSPropertyOp17
 70
     1
102
RTVSPropertyOp18
 70
     1
102
RTVSPropertyOp19
 70
     1
102
RTVSPropertyOp20
 70
     1
102
RTVSPropertyOp21
 70
     1
102
RTVSPropertyOp22
 70
     1
102
RTVSPropertyOp23
 70
     1
102
RTVSPropertyOp24
 70
     1
102
RTVSPropertyOp25
 70
     1
102
RTVSPropertyOp26
 70
     1
102
RTVSPropertyOp27
 70
     1
102
RTVSPropertyOp28
 70
     1
102
RTVSPropertyOp29
 70
     1
102
RTVSPropertyOp30
 70
     1
102
RTVSPropertyOp31
 70
     1
102
RTVSPropertyOp32
 70
     1
  0
XRECORD
  5
18FAA
102
{ACAD_REACTORS
330
18FA9
102
}
330
18FA9
100
AcDbXrecord
280
     1
102
RTVSPropertyOp0
 70
     1
102
RTVSPropertyOp1
 70
     1
102
RTVSPropertyOp2
 70
     1
102
RTVSPropertyOp3
 70
     1
102
RTVSPropertyOp4
 70
     1
102
RTVSPropertyOp5
 70
     1
102
RTVSPropertyOp6
 70
     1
102
RTVSPropertyOp7
 70
     1
102
RTVSPropertyOp8
 70
     1
102
RTVSPropertyOp9
 70
     1
102
RTVSPropertyOp10
 70
     1
102
RTVSPropertyOp11
 70
     1
102
RTVSPropertyOp12
 70
     1
102
RTVSPropertyOp13
 70
     1
102
RTVSPropertyOp14
 70
     1
102
RTVSPropertyOp15
 70
     1
102
RTVSPropertyOp16
 70
     1
102
RTVSPropertyOp17
 70
     1
102
RTVSPropertyOp18
 70
     1
102
RTVSPropertyOp19
 70
     1
102
RTVSPropertyOp20
 70
     1
102
RTVSPropertyOp21
 70
     1
102
RTVSPropertyOp22
 70
     1
102
RTVSPropertyOp23
 70
     1
102
RTVSPropertyOp24
 70
     1
102
RTVSPropertyOp25
 70
     1
102
RTVSPropertyOp26
 70
     1
102
RTVSPropertyOp27
 70
     1
102
RTVSPropertyOp28
 70
     1
102
RTVSPropertyOp29
 70
     1
102
RTVSPropertyOp30
 70
     1
102
RTVSPropertyOp31
 70
     1
102
RTVSPropertyOp32
 70
     1
  0
XRECORD
  5
18FC3
102
{ACAD_REACTORS
330
18FC2
102
}
330
18FC2
100
AcDbXrecord
280
     1
102
RTVSPropertyOp0
 70
     1
102
RTVSPropertyOp1
 70
     1
102
RTVSPropertyOp2
 70
     1
102
RTVSPropertyOp3
 70
     1
102
RTVSPropertyOp4
 70
     1
102
RTVSPropertyOp5
 70
     1
102
RTVSPropertyOp6
 70
     1
102
RTVSPropertyOp7
 70
     1
102
RTVSPropertyOp8
 70
     1
102
RTVSPropertyOp9
 70
     1
102
RTVSPropertyOp10
 70
     1
102
RTVSPropertyOp11
 70
     1
102
RTVSPropertyOp12
 70
     1
102
RTVSPropertyOp13
 70
     1
102
RTVSPropertyOp14
 70
     1
102
RTVSPropertyOp15
 70
     1
102
RTVSPropertyOp16
 70
     1
102
RTVSPropertyOp17
 70
     1
102
RTVSPropertyOp18
 70
     1
102
RTVSPropertyOp19
 70
     1
102
RTVSPropertyOp20
 70
     1
102
RTVSPropertyOp21
 70
     1
102
RTVSPropertyOp22
 70
     1
102
RTVSPropertyOp23
 70
     1
102
RTVSPropertyOp24
 70
     1
102
RTVSPropertyOp25
 70
     1
102
RTVSPropertyOp26
 70
     1
102
RTVSPropertyOp27
 70
     1
102
RTVSPropertyOp28
 70
     1
102
RTVSPropertyOp29
 70
     1
102
RTVSPropertyOp30
 70
     1
102
RTVSPropertyOp31
 70
     1
102
RTVSPropertyOp32
 70
     1
  0
XRECORD
  5
18FD3
102
{ACAD_REACTORS
330
18FD2
102
}
330
18FD2
100
AcDbXrecord
280
     1
102
RTVSPropertyOp0
 70
     0
102
RTVSPropertyOp1
 70
     0
102
RTVSPropertyOp2
 70
     0
102
RTVSPropertyOp3
 70
     0
102
RTVSPropertyOp4
 70
     0
102
RTVSPropertyOp5
 70
     0
102
RTVSPropertyOp6
 70
     0
102
RTVSPropertyOp7
 70
     0
102
RTVSPropertyOp8
 70
     0
102
RTVSPropertyOp9
 70
     0
102
RTVSPropertyOp10
 70
     0
102
RTVSPropertyOp11
 70
     0
102
RTVSPropertyOp12
 70
     0
102
RTVSPropertyOp13
 70
     0
102
RTVSPropertyOp14
 70
     2
102
RTVSPropertyOp15
 70
     0
102
RTVSPropertyOp16
 70
     0
102
RTVSPropertyOp17
 70
     0
102
RTVSPropertyOp18
 70
     0
102
RTVSPropertyOp19
 70
     0
102
RTVSPropertyOp20
 70
     0
102
RTVSPropertyOp21
 70
     0
102
RTVSPropertyOp22
 70
     0
102
RTVSPropertyOp23
 70
     0
102
RTVSPropertyOp24
 70
     0
102
RTVSPropertyOp25
 70
     0
102
RTVSPropertyOp26
 70
     0
102
RTVSPropertyOp27
 70
     0
102
RTVSPropertyOp28
 70
     0
102
RTVSPropertyOp29
 70
     0
102
RTVSPropertyOp30
 70
     0
102
RTVSPropertyOp31
 70
     0
102
RTVSPropertyOp32
 70
     0
  0
XRECORD
  5
18FB6
102
{ACAD_REACTORS
330
18FB5
102
}
330
18FB5
100
AcDbXrecord
280
     1
102
RTVSPropertyOp0
 70
     1
102
RTVSPropertyOp1
 70
     1
102
RTVSPropertyOp2
 70
     1
102
RTVSPropertyOp3
 70
     1
102
RTVSPropertyOp4
 70
     1
102
RTVSPropertyOp5
 70
     1
102
RTVSPropertyOp6
 70
     1
102
RTVSPropertyOp7
 70
     1
102
RTVSPropertyOp8
 70
     1
102
RTVSPropertyOp9
 70
     1
102
RTVSPropertyOp10
 70
     1
102
RTVSPropertyOp11
 70
     1
102
RTVSPropertyOp12
 70
     1
102
RTVSPropertyOp13
 70
     1
102
RTVSPropertyOp14
 70
     1
102
RTVSPropertyOp15
 70
     1
102
RTVSPropertyOp16
 70
     1
102
RTVSPropertyOp17
 70
     1
102
RTVSPropertyOp18
 70
     1
102
RTVSPropertyOp19
 70
     1
102
RTVSPropertyOp20
 70
     1
102
RTVSPropertyOp21
 70
     1
102
RTVSPropertyOp22
 70
     1
102
RTVSPropertyOp23
 70
     1
102
RTVSPropertyOp24
 70
     1
102
RTVSPropertyOp25
 70
     1
102
RTVSPropertyOp26
 70
     1
102
RTVSPropertyOp27
 70
     1
102
RTVSPropertyOp28
 70
     1
102
RTVSPropertyOp29
 70
     1
102
RTVSPropertyOp30
 70
     1
102
RTVSPropertyOp31
 70
     1
102
RTVSPropertyOp32
 70
     1
  0
XRECORD
  5
18FD5
102
{ACAD_REACTORS
330
18FD4
102
}
330
18FD4
100
AcDbXrecord
280
     1
102
RTVSPropertyOp0
 70
     0
102
RTVSPropertyOp1
 70
     0
102
RTVSPropertyOp2
 70
     0
102
RTVSPropertyOp3
 70
     0
102
RTVSPropertyOp4
 70
     0
102
RTVSPropertyOp5
 70
     0
102
RTVSPropertyOp6
 70
     0
102
RTVSPropertyOp7
 70
     0
102
RTVSPropertyOp8
 70
     0
102
RTVSPropertyOp9
 70
     0
102
RTVSPropertyOp10
 70
     0
102
RTVSPropertyOp11
 70
     0
102
RTVSPropertyOp12
 70
     0
102
RTVSPropertyOp13
 70
     0
102
RTVSPropertyOp14
 70
     2
102
RTVSPropertyOp15
 70
     0
102
RTVSPropertyOp16
 70
     0
102
RTVSPropertyOp17
 70
     0
102
RTVSPropertyOp18
 70
     0
102
RTVSPropertyOp19
 70
     0
102
RTVSPropertyOp20
 70
     0
102
RTVSPropertyOp21
 70
     0
102
RTVSPropertyOp22
 70
     0
102
RTVSPropertyOp23
 70
     0
102
RTVSPropertyOp24
 70
     0
102
RTVSPropertyOp25
 70
     0
102
RTVSPropertyOp26
 70
     0
102
RTVSPropertyOp27
 70
     0
102
RTVSPropertyOp28
 70
     0
102
RTVSPropertyOp29
 70
     0
102
RTVSPropertyOp30
 70
     0
102
RTVSPropertyOp31
 70
     0
102
RTVSPropertyOp32
 70
     0
  0
XRECORD
  5
18FC7
102
{ACAD_REACTORS
330
18FC6
102
}
330
18FC6
100
AcDbXrecord
280
     1
102
RTVSPropertyOp0
 70
     1
102
RTVSPropertyOp1
 70
     1
102
RTVSPropertyOp2
 70
     1
102
RTVSPropertyOp3
 70
     1
102
RTVSPropertyOp4
 70
     1
102
RTVSPropertyOp5
 70
     1
102
RTVSPropertyOp6
 70
     1
102
RTVSPropertyOp7
 70
     1
102
RTVSPropertyOp8
 70
     1
102
RTVSPropertyOp9
 70
     1
102
RTVSPropertyOp10
 70
     1
102
RTVSPropertyOp11
 70
     1
102
RTVSPropertyOp12
 70
     1
102
RTVSPropertyOp13
 70
     1
102
RTVSPropertyOp14
 70
     1
102
RTVSPropertyOp15
 70
     1
102
RTVSPropertyOp16
 70
     1
102
RTVSPropertyOp17
 70
     1
102
RTVSPropertyOp18
 70
     1
102
RTVSPropertyOp19
 70
     1
102
RTVSPropertyOp20
 70
     1
102
RTVSPropertyOp21
 70
     1
102
RTVSPropertyOp22
 70
     1
102
RTVSPropertyOp23
 70
     1
102
RTVSPropertyOp24
 70
     1
102
RTVSPropertyOp25
 70
     1
102
RTVSPropertyOp26
 70
     1
102
RTVSPropertyOp27
 70
     1
102
RTVSPropertyOp28
 70
     1
102
RTVSPropertyOp29
 70
     1
102
RTVSPropertyOp30
 70
     1
102
RTVSPropertyOp31
 70
     1
102
RTVSPropertyOp32
 70
     1
  0
XRECORD
  5
18FD1
102
{ACAD_REACTORS
330
18FD0
102
}
330
18FD0
100
AcDbXrecord
280
     1
102
RTVSPropertyOp0
 70
     1
102
RTVSPropertyOp1
 70
     1
102
RTVSPropertyOp2
 70
     1
102
RTVSPropertyOp3
 70
     1
102
RTVSPropertyOp4
 70
     1
102
RTVSPropertyOp5
 70
     1
102
RTVSPropertyOp6
 70
     1
102
RTVSPropertyOp7
 70
     1
102
RTVSPropertyOp8
 70
     1
102
RTVSPropertyOp9
 70
     1
102
RTVSPropertyOp10
 70
     1
102
RTVSPropertyOp11
 70
     1
102
RTVSPropertyOp12
 70
     1
102
RTVSPropertyOp13
 70
     1
102
RTVSPropertyOp14
 70
     1
102
RTVSPropertyOp15
 70
     1
102
RTVSPropertyOp16
 70
     1
102
RTVSPropertyOp17
 70
     1
102
RTVSPropertyOp18
 70
     1
102
RTVSPropertyOp19
 70
     1
102
RTVSPropertyOp20
 70
     1
102
RTVSPropertyOp21
 70
     1
102
RTVSPropertyOp22
 70
     1
102
RTVSPropertyOp23
 70
     1
102
RTVSPropertyOp24
 70
     1
102
RTVSPropertyOp25
 70
     1
102
RTVSPropertyOp26
 70
     1
102
RTVSPropertyOp27
 70
     1
102
RTVSPropertyOp28
 70
     1
102
RTVSPropertyOp29
 70
     1
102
RTVSPropertyOp30
 70
     1
102
RTVSPropertyOp31
 70
     1
102
RTVSPropertyOp32
 70
     1
  0
XRECORD
  5
18FCF
102
{ACAD_REACTORS
330
18FCE
102
}
330
18FCE
100
AcDbXrecord
280
     1
102
RTVSPropertyOp0
 70
     1
102
RTVSPropertyOp1
 70
     1
102
RTVSPropertyOp2
 70
     1
102
RTVSPropertyOp3
 70
     1
102
RTVSPropertyOp4
 70
     1
102
RTVSPropertyOp5
 70
     1
102
RTVSPropertyOp6
 70
     1
102
RTVSPropertyOp7
 70
     1
102
RTVSPropertyOp8
 70
     1
102
RTVSPropertyOp9
 70
     1
102
RTVSPropertyOp10
 70
     1
102
RTVSPropertyOp11
 70
     1
102
RTVSPropertyOp12
 70
     1
102
RTVSPropertyOp13
 70
     1
102
RTVSPropertyOp14
 70
     1
102
RTVSPropertyOp15
 70
     1
102
RTVSPropertyOp16
 70
     1
102
RTVSPropertyOp17
 70
     1
102
RTVSPropertyOp18
 70
     1
102
RTVSPropertyOp19
 70
     1
102
RTVSPropertyOp20
 70
     1
102
RTVSPropertyOp21
 70
     1
102
RTVSPropertyOp22
 70
     1
102
RTVSPropertyOp23
 70
     1
102
RTVSPropertyOp24
 70
     1
102
RTVSPropertyOp25
 70
     1
102
RTVSPropertyOp26
 70
     1
102
RTVSPropertyOp27
 70
     1
102
RTVSPropertyOp28
 70
     1
102
RTVSPropertyOp29
 70
     1
102
RTVSPropertyOp30
 70
     1
102
RTVSPropertyOp31
 70
     1
102
RTVSPropertyOp32
 70
     1
  0
XRECORD
  5
18FC9
102
{ACAD_REACTORS
330
18FC8
102
}
330
18FC8
100
AcDbXrecord
280
     1
102
RTVSPropertyOp0
 70
     1
102
RTVSPropertyOp1
 70
     1
102
RTVSPropertyOp2
 70
     1
102
RTVSPropertyOp3
 70
     1
102
RTVSPropertyOp4
 70
     1
102
RTVSPropertyOp5
 70
     1
102
RTVSPropertyOp6
 70
     1
102
RTVSPropertyOp7
 70
     1
102
RTVSPropertyOp8
 70
     1
102
RTVSPropertyOp9
 70
     1
102
RTVSPropertyOp10
 70
     1
102
RTVSPropertyOp11
 70
     1
102
RTVSPropertyOp12
 70
     1
102
RTVSPropertyOp13
 70
     1
102
RTVSPropertyOp14
 70
     1
102
RTVSPropertyOp15
 70
     1
102
RTVSPropertyOp16
 70
     1
102
RTVSPropertyOp17
 70
     1
102
RTVSPropertyOp18
 70
     1
102
RTVSPropertyOp19
 70
     1
102
RTVSPropertyOp20
 70
     1
102
RTVSPropertyOp21
 70
     1
102
RTVSPropertyOp22
 70
     1
102
RTVSPropertyOp23
 70
     1
102
RTVSPropertyOp24
 70
     1
102
RTVSPropertyOp25
 70
     1
102
RTVSPropertyOp26
 70
     1
102
RTVSPropertyOp27
 70
     1
102
RTVSPropertyOp28
 70
     1
102
RTVSPropertyOp29
 70
     1
102
RTVSPropertyOp30
 70
     1
102
RTVSPropertyOp31
 70
     1
102
RTVSPropertyOp32
 70
     1
  0
XRECORD
  5
18FCB
102
{ACAD_REACTORS
330
18FCA
102
}
330
18FCA
100
AcDbXrecord
280
     1
102
RTVSPropertyOp0
 70
     1
102
RTVSPropertyOp1
 70
     1
102
RTVSPropertyOp2
 70
     1
102
RTVSPropertyOp3
 70
     1
102
RTVSPropertyOp4
 70
     1
102
RTVSPropertyOp5
 70
     1
102
RTVSPropertyOp6
 70
     1
102
RTVSPropertyOp7
 70
     1
102
RTVSPropertyOp8
 70
     1
102
RTVSPropertyOp9
 70
     1
102
RTVSPropertyOp10
 70
     1
102
RTVSPropertyOp11
 70
     1
102
RTVSPropertyOp12
 70
     1
102
RTVSPropertyOp13
 70
     1
102
RTVSPropertyOp14
 70
     1
102
RTVSPropertyOp15
 70
     1
102
RTVSPropertyOp16
 70
     1
102
RTVSPropertyOp17
 70
     1
102
RTVSPropertyOp18
 70
     1
102
RTVSPropertyOp19
 70
     1
102
RTVSPropertyOp20
 70
     1
102
RTVSPropertyOp21
 70
     1
102
RTVSPropertyOp22
 70
     1
102
RTVSPropertyOp23
 70
     1
102
RTVSPropertyOp24
 70
     1
102
RTVSPropertyOp25
 70
     1
102
RTVSPropertyOp26
 70
     1
102
RTVSPropertyOp27
 70
     1
102
RTVSPropertyOp28
 70
     1
102
RTVSPropertyOp29
 70
     1
102
RTVSPropertyOp30
 70
     1
102
RTVSPropertyOp31
 70
     1
102
RTVSPropertyOp32
 70
     1
  0
XRECORD
  5
18FB4
102
{ACAD_REACTORS
330
18FB3
102
}
330
18FB3
100
AcDbXrecord
280
     1
102
RTVSPropertyOp0
 70
     1
102
RTVSPropertyOp1
 70
     1
102
RTVSPropertyOp2
 70
     1
102
RTVSPropertyOp3
 70
     1
102
RTVSPropertyOp4
 70
     1
102
RTVSPropertyOp5
 70
     1
102
RTVSPropertyOp6
 70
     1
102
RTVSPropertyOp7
 70
     1
102
RTVSPropertyOp8
 70
     1
102
RTVSPropertyOp9
 70
     1
102
RTVSPropertyOp10
 70
     1
102
RTVSPropertyOp11
 70
     1
102
RTVSPropertyOp12
 70
     1
102
RTVSPropertyOp13
 70
     1
102
RTVSPropertyOp14
 70
     1
102
RTVSPropertyOp15
 70
     1
102
RTVSPropertyOp16
 70
     1
102
RTVSPropertyOp17
 70
     1
102
RTVSPropertyOp18
 70
     1
102
RTVSPropertyOp19
 70
     1
102
RTVSPropertyOp20
 70
     1
102
RTVSPropertyOp21
 70
     1
102
RTVSPropertyOp22
 70
     1
102
RTVSPropertyOp23
 70
     1
102
RTVSPropertyOp24
 70
     1
102
RTVSPropertyOp25
 70
     1
102
RTVSPropertyOp26
 70
     1
102
RTVSPropertyOp27
 70
     1
102
RTVSPropertyOp28
 70
     1
102
RTVSPropertyOp29
 70
     1
102
RTVSPropertyOp30
 70
     1
102
RTVSPropertyOp31
 70
     1
102
RTVSPropertyOp32
 70
     1
  0
XRECORD
  5
18FC1
102
{ACAD_REACTORS
330
18FC0
102
}
330
18FC0
100
AcDbXrecord
280
     1
102
RTVSPropertyOp0
 70
     1
102
RTVSPropertyOp1
 70
     1
102
RTVSPropertyOp2
 70
     1
102
RTVSPropertyOp3
 70
     1
102
RTVSPropertyOp4
 70
     1
102
RTVSPropertyOp5
 70
     1
102
RTVSPropertyOp6
 70
     1
102
RTVSPropertyOp7
 70
     1
102
RTVSPropertyOp8
 70
     1
102
RTVSPropertyOp9
 70
     1
102
RTVSPropertyOp10
 70
     1
102
RTVSPropertyOp11
 70
     1
102
RTVSPropertyOp12
 70
     1
102
RTVSPropertyOp13
 70
     1
102
RTVSPropertyOp14
 70
     1
102
RTVSPropertyOp15
 70
     1
102
RTVSPropertyOp16
 70
     1
102
RTVSPropertyOp17
 70
     1
102
RTVSPropertyOp18
 70
     1
102
RTVSPropertyOp19
 70
     1
102
RTVSPropertyOp20
 70
     1
102
RTVSPropertyOp21
 70
     1
102
RTVSPropertyOp22
 70
     1
102
RTVSPropertyOp23
 70
     1
102
RTVSPropertyOp24
 70
     1
102
RTVSPropertyOp25
 70
     1
102
RTVSPropertyOp26
 70
     1
102
RTVSPropertyOp27
 70
     1
102
RTVSPropertyOp28
 70
     1
102
RTVSPropertyOp29
 70
     1
102
RTVSPropertyOp30
 70
     1
102
RTVSPropertyOp31
 70
     1
102
RTVSPropertyOp32
 70
     1
  0
XRECORD
  5
18FCD
102
{ACAD_REACTORS
330
18FCC
102
}
330
18FCC
100
AcDbXrecord
280
     1
102
RTVSPropertyOp0
 70
     1
102
RTVSPropertyOp1
 70
     1
102
RTVSPropertyOp2
 70
     1
102
RTVSPropertyOp3
 70
     1
102
RTVSPropertyOp4
 70
     1
102
RTVSPropertyOp5
 70
     1
102
RTVSPropertyOp6
 70
     1
102
RTVSPropertyOp7
 70
     1
102
RTVSPropertyOp8
 70
     1
102
RTVSPropertyOp9
 70
     1
102
RTVSPropertyOp10
 70
     1
102
RTVSPropertyOp11
 70
     1
102
RTVSPropertyOp12
 70
     1
102
RTVSPropertyOp13
 70
     1
102
RTVSPropertyOp14
 70
     1
102
RTVSPropertyOp15
 70
     1
102
RTVSPropertyOp16
 70
     1
102
RTVSPropertyOp17
 70
     1
102
RTVSPropertyOp18
 70
     1
102
RTVSPropertyOp19
 70
     1
102
RTVSPropertyOp20
 70
     1
102
RTVSPropertyOp21
 70
     1
102
RTVSPropertyOp22
 70
     1
102
RTVSPropertyOp23
 70
     1
102
RTVSPropertyOp24
 70
     1
102
RTVSPropertyOp25
 70
     1
102
RTVSPropertyOp26
 70
     1
102
RTVSPropertyOp27
 70
     1
102
RTVSPropertyOp28
 70
     1
102
RTVSPropertyOp29
 70
     1
102
RTVSPropertyOp30
 70
     1
102
RTVSPropertyOp31
 70
     1
102
RTVSPropertyOp32
 70
     1
  0
ENDSEC
  0
EOF
