  0
SECTION
  2
HEADER
  9
$ACADVER
  1
AC1018
  9
$ACADMAINTVER
 70
    76
  9
$DWGCODEPAGE
  3
ANSI_1252
  9
$INSBASE
 10
0.0
 20
0.0
 30
0.0
  9
$EXTMIN
 10
197.6281839041077
 20
30.39328891958991
 30
-0.0015258207003583
  9
$EXTMAX
 10
256.3768100387349
 20
85.31277951922033
 30
0.0000000349246037
  9
$LIMMIN
 10
0.0
 20
0.0
  9
$LIMMAX
 10
12.0
 20
9.0
  9
$ORTHOMODE
 70
     0
  9
$REGENMODE
 70
     1
  9
$FILLMODE
 70
     1
  9
$QTEXTMODE
 70
     0
  9
$MIRRTEXT
 70
     0
  9
$LTSCALE
 40
1.0
  9
$ATTMODE
 70
     1
  9
$TEXTSIZE
 40
0.875
  9
$TRACEWID
 40
0.05
  9
$TEXTSTYLE
  7
Standard
  9
$CLAYER
  8
0
  9
$CELTYPE
  6
ByLayer
  9
$CECOLOR
 62
   256
  9
$CELTSCALE
 40
1.0
  9
$DISPSILH
 70
     0
  9
$DIMSCALE
 40
1.0
  9
$DIMASZ
 40
1.8
  9
$DIMEXO
 40
0.0625
  9
$DIMDLI
 40
0.38
  9
$DIMRND
 40
0.0
  9
$DIMDLE
 40
0.0
  9
$DIMEXE
 40
0.0625
  9
$DIMTP
 40
0.0
  9
$DIMTM
 40
0.0
  9
$DIMTXT
 40
1.8
  9
$DIMCEN
 40
0.09
  9
$DIMTSZ
 40
0.0
  9
$DIMTOL
 70
     0
  9
$DIMLIM
 70
     0
  9
$DIMTIH
 70
     1
  9
$DIMTOH
 70
     1
  9
$DIMSE1
 70
     0
  9
$DIMSE2
 70
     0
  9
$DIMTAD
 70
     0
  9
$DIMZIN
 70
     0
  9
$DIMBLK
  1

  9
$DIMASO
 70
     1
  9
$DIMSHO
 70
     1
  9
$DIMPOST
  1
"
  9
$DIMAPOST
  1
mm
  9
$DIMALT
 70
     1
  9
$DIMALTD
 70
     0
  9
$DIMALTF
 40
25.4
  9
$DIMLFAC
 40
1.0
  9
$DIMTOFL
 70
     0
  9
$DIMTVP
 40
0.0
  9
$DIMTIX
 70
     0
  9
$DIMSOXD
 70
     0
  9
$DIMSAH
 70
     0
  9
$DIMBLK1
  1

  9
$DIMBLK2
  1

  9
$DIMSTYLE
  2
spec dim2
  9
$DIMCLRD
 70
     0
  9
$DIMCLRE
 70
   256
  9
$DIMCLRT
 70
     0
  9
$DIMTFAC
 40
1.0
  9
$DIMGAP
 40
0.09
  9
$DIMJUST
 70
     0
  9
$DIMSD1
 70
     0
  9
$DIMSD2
 70
     0
  9
$DIMTOLJ
 70
     1
  9
$DIMTZIN
 70
     0
  9
$DIMALTZ
 70
     0
  9
$DIMALTTZ
 70
     0
  9
$DIMUPT
 70
     0
  9
$DIMDEC
 70
     4
  9
$DIMTDEC
 70
     4
  9
$DIMALTU
 70
     2
  9
$DIMALTTD
 70
     0
  9
$DIMTXSTY
  7
Standard
  9
$DIMAUNIT
 70
     0
  9
$DIMADEC
 70
     0
  9
$DIMALTRND
 40
0.0
  9
$DIMAZIN
 70
     0
  9
$DIMDSEP
 70
    46
  9
$DIMATFIT
 70
     3
  9
$DIMFRAC
 70
     2
  9
$DIMLDRBLK
  1

  9
$DIMLUNIT
 70
     5
  9
$DIMLWD
 70
    -1
  9
$DIMLWE
 70
    -1
  9
$DIMTMOVE
 70
     0
  9
$LUNITS
 70
     2
  9
$LUPREC
 70
     4
  9
$SKETCHINC
 40
0.1
  9
$FILLETRAD
 40
0.1
  9
$AUNITS
 70
     0
  9
$AUPREC
 70
     0
  9
$MENU
  1
.
  9
$ELEVATION
 40
0.0
  9
$PELEVATION
 40
0.0
  9
$THICKNESS
 40
0.0
  9
$LIMCHECK
 70
     0
  9
$CHAMFERA
 40
0.0
  9
$CHAMFERB
 40
0.0
  9
$CHAMFERC
 40
0.0
  9
$CHAMFERD
 40
0.0
  9
$SKPOLY
 70
     0
  9
$TDCREATE
 40
2455131.344719144
  9
$TDUCREATE
 40
2455131.553052477
  9
$TDUPDATE
 40
2455230.455461146
  9
$TDUUPDATE
 40
2455230.663794480
  9
$TDINDWG
 40
0.2931873495
  9
$TDUSRTIMER
 40
0.2931868056
  9
$USRTIMER
 70
     1
  9
$ANGBASE
 50
0.0
  9
$ANGDIR
 70
     0
  9
$PDMODE
 70
     0
  9
$PDSIZE
 40
0.0
  9
$PLINEWID
 40
0.0
  9
$SPLFRAME
 70
     0
  9
$SPLINETYPE
 70
     6
  9
$SPLINESEGS
 70
     8
  9
$HANDSEED
  5
E939
  9
$SURFTAB1
 70
     6
  9
$SURFTAB2
 70
     6
  9
$SURFTYPE
 70
     6
  9
$SURFU
 70
     6
  9
$SURFV
 70
     6
  9
$UCSBASE
  2

  9
$UCSNAME
  2

  9
$UCSORG
 10
0.0
 20
0.0
 30
0.0
  9
$UCSXDIR
 10
1.0
 20
0.0
 30
0.0
  9
$UCSYDIR
 10
0.0
 20
1.0
 30
0.0
  9
$UCSORTHOREF
  2

  9
$UCSORTHOVIEW
 70
     0
  9
$UCSORGTOP
 10
0.0
 20
0.0
 30
0.0
  9
$UCSORGBOTTOM
 10
0.0
 20
0.0
 30
0.0
  9
$UCSORGLEFT
 10
0.0
 20
0.0
 30
0.0
  9
$UCSORGRIGHT
 10
0.0
 20
0.0
 30
0.0
  9
$UCSORGFRONT
 10
0.0
 20
0.0
 30
0.0
  9
$UCSORGBACK
 10
0.0
 20
0.0
 30
0.0
  9
$PUCSBASE
  2

  9
$PUCSNAME
  2

  9
$PUCSORG
 10
0.0
 20
0.0
 30
0.0
  9
$PUCSXDIR
 10
1.0
 20
0.0
 30
0.0
  9
$PUCSYDIR
 10
0.0
 20
1.0
 30
0.0
  9
$PUCSORTHOREF
  2

  9
$PUCSORTHOVIEW
 70
     0
  9
$PUCSORGTOP
 10
0.0
 20
0.0
 30
0.0
  9
$PUCSORGBOTTOM
 10
0.0
 20
0.0
 30
0.0
  9
$PUCSORGLEFT
 10
0.0
 20
0.0
 30
0.0
  9
$PUCSORGRIGHT
 10
0.0
 20
0.0
 30
0.0
  9
$PUCSORGFRONT
 10
0.0
 20
0.0
 30
0.0
  9
$PUCSORGBACK
 10
0.0
 20
0.0
 30
0.0
  9
$USERI1
 70
     0
  9
$USERI2
 70
     0
  9
$USERI3
 70
     0
  9
$USERI4
 70
     0
  9
$USERI5
 70
     0
  9
$USERR1
 40
0.0
  9
$USERR2
 40
0.0
  9
$USERR3
 40
0.0
  9
$USERR4
 40
0.0
  9
$USERR5
 40
0.0
  9
$WORLDVIEW
 70
     1
  9
$SHADEDGE
 70
     3
  9
$SHADEDIF
 70
    70
  9
$TILEMODE
 70
     1
  9
$MAXACTVP
 70
    64
  9
$PINSBASE
 10
0.0
 20
0.0
 30
0.0
  9
$PLIMCHECK
 70
     0
  9
$PEXTMIN
 10
-3.79084909306129
 20
-3.676518677626091
 30
0.0
  9
$PEXTMAX
 10
4.709150906938709
 20
7.323481322373908
 30
0.0
  9
$PLIMMIN
 10
0.0
 20
0.0
  9
$PLIMMAX
 10
12.0
 20
9.0
  9
$UNITMODE
 70
     0
  9
$VISRETAIN
 70
     1
  9
$PLINEGEN
 70
     0
  9
$PSLTSCALE
 70
     1
  9
$TREEDEPTH
 70
  3020
  9
$CMLSTYLE
  2
Standard
  9
$CMLJUST
 70
     0
  9
$CMLSCALE
 40
1.0
  9
$PROXYGRAPHICS
 70
     1
  9
$MEASUREMENT
 70
     0
  9
$CELWEIGHT
370
    -1
  9
$ENDCAPS
280
     0
  9
$JOINSTYLE
280
     0
  9
$LWDISPLAY
290
     0
  9
$INSUNITS
 70
     1
  9
$HYPERLINKBASE
  1

  9
$STYLESHEET
  1

  9
$XEDIT
290
     1
  9
$CEPSNTYPE
380
     0
  9
$PSTYLEMODE
290
     1
  9
$FINGERPRINTGUID
  2
{1B7DE421-5619-48BD-B391-0ABF79F09AE4}
  9
$VERSIONGUID
  2
{D37B9A97-2967-4DEA-AFD1-EA5C9A4BF1DD}
  9
$EXTNAMES
290
     1
  9
$PSVPSCALE
 40
0.0
  9
$OLESTARTUP
290
     0
  9
$SORTENTS
280
   127
  9
$INDEXCTL
280
     0
  9
$HIDETEXT
280
     1
  9
$XCLIPFRAME
290
     0
  9
$HALOGAP
280
     0
  9
$OBSCOLOR
 70
   257
  9
$OBSLTYPE
280
     0
  9
$INTERSECTIONDISPLAY
280
     0
  9
$INTERSECTIONCOLOR
 70
   257
  9
$DIMASSOC
280
     2
  9
$PROJECTNAME
  1

  0
ENDSEC
  0
SECTION
  2
CLASSES
  0
CLASS
  1
ACDBDICTIONARYWDFLT
  2
AcDbDictionaryWithDefault
  3
ObjectDBX Classes
 90
        0
 91
        1
280
     0
281
     0
  0
CLASS
  1
DICTIONARYVAR
  2
AcDbDictionaryVar
  3
ObjectDBX Classes
 90
        0
 91
        3
280
     0
281
     0
  0
CLASS
  1
TABLESTYLE
  2
AcDbTableStyle
  3
ObjectDBX Classes
 90
     2047
 91
        1
280
     0
281
     0
  0
CLASS
  1
SORTENTSTABLE
  2
AcDbSortentsTable
  3
ObjectDBX Classes
 90
        0
 91
        4
280
     0
281
     0
  0
CLASS
  1
DIMASSOC
  2
AcDbDimAssoc
  3
"AcDbDimAssoc|Product Desc:     AcDim ARX App For Dimension|Company:          Autodesk, Inc.|WEB Address:      www.autodesk.com"
 90
        0
 91
        8
280
     0
281
     0
  0
CLASS
  1
MATERIAL
  2
AcDbMaterial
  3
ObjectDBX Classes
 90
        0
 91
        1
280
     0
281
     0
  0
CLASS
  1
PLOTSETTINGS
  2
AcDbPlotSettings
  3
ObjectDBX Classes
 90
        0
 91
        1
280
     0
281
     0
  0
ENDSEC
  0
SECTION
  2
TABLES
  0
TABLE
  2
VPORT
  5
8
330
0
100
AcDbSymbolTable
 70
     7
  0
VPORT
  5
E938
330
8
100
AcDbSymbolTableRecord
100
AcDbViewportTableRecord
  2
*Active
 70
     0
 10
0.0
 20
0.0
 11
1.0
 21
1.0
 12
227.0024969714213
 22
57.85303421940511
 13
0.0
 23
0.0
 14
0.5
 24
0.5
 15
0.5
 25
0.5
 16
0.0
 26
0.0
 36
1.0
 17
0.0
 27
0.0
 37
0.0
 40
55.37588525835312
 41
1.674063800277392
 42
50.0
 43
0.0
 44
0.0
 50
0.0
 51
0.0
 71
     0
 72
  1000
 73
     1
 74
     3
 75
     0
 76
     0
 77
     0
 78
     0
281
     0
 65
     1
110
0.0
120
0.0
130
0.0
111
1.0
121
0.0
131
0.0
112
0.0
122
1.0
132
0.0
 79
     0
146
0.0
  0
ENDTAB
  0
TABLE
  2
LTYPE
  5
5
330
0
100
AcDbSymbolTable
 70
    13
  0
LTYPE
  5
14
330
5
100
AcDbSymbolTableRecord
100
AcDbLinetypeTableRecord
  2
ByBlock
 70
     0
  3

 72
    65
 73
     0
 40
0.0
  0
LTYPE
  5
15
330
5
100
AcDbSymbolTableRecord
100
AcDbLinetypeTableRecord
  2
ByLayer
 70
     0
  3

 72
    65
 73
     0
 40
0.0
  0
LTYPE
  5
16
330
5
100
AcDbSymbolTableRecord
100
AcDbLinetypeTableRecord
  2
Continuous
 70
     0
  3
Solid line
 72
    65
 73
     0
 40
0.0
  0
LTYPE
  5
14F
330
5
100
AcDbSymbolTableRecord
100
AcDbLinetypeTableRecord
  2
DASHED
 70
     0
  3
-- -- -- -- -- -- -- -- -- --
 72
    65
 73
     2
 40
3.0
 49
2.0
 74
     0
 49
-1.0
 74
     0
  0
LTYPE
  5
150
330
5
100
AcDbSymbolTableRecord
100
AcDbLinetypeTableRecord
  2
\M+1946A\M+190FC
 70
     0
  3
- - - -
 72
    65
 73
     2
 40
1.25
 49
0.5
 74
     0
 49
-0.75
 74
     0
  0
LTYPE
  5
151
330
5
100
AcDbSymbolTableRecord
100
AcDbLinetypeTableRecord
  2
\M+19286\M+19053\M+190FC
 70
     0
  3
-.-.-
 72
    65
 73
     4
 40
5.0
 49
3.0
 74
     0
 49
-0.75
 74
     0
 49
0.5
 74
     0
 49
-0.75
 74
     0
  0
LTYPE
  5
43A9
330
5
100
AcDbSymbolTableRecord
100
AcDbLinetypeTableRecord
  2
ACAD_ISO04W100
 70
     0
  3
ISO long-dash dot ____ . ____ . ____ . ____ . _
 72
    65
 73
     4
 40
30.5
 49
24.0
 74
     0
 49
-3.0
 74
     0
 49
0.5
 74
     0
 49
-3.0
 74
     0
  0
LTYPE
  5
43AA
330
5
100
AcDbSymbolTableRecord
100
AcDbLinetypeTableRecord
  2
CENTERX2
 70
     0
  3
Center (2x) ________  __  ________  __  _____
 72
    65
 73
     4
 40
4.0
 49
2.5
 74
     0
 49
-0.5
 74
     0
 49
0.5
 74
     0
 49
-0.5
 74
     0
  0
LTYPE
  5
43AB
330
5
100
AcDbSymbolTableRecord
100
AcDbLinetypeTableRecord
  2
ACAD_ISO03W100
 70
     0
  3
ISO dash space __    __    __    __    __    __
 72
    65
 73
     2
 40
30.0
 49
12.0
 74
     0
 49
-18.0
 74
     0
  0
LTYPE
  5
43AC
330
5
100
AcDbSymbolTableRecord
100
AcDbLinetypeTableRecord
  2
HIDDEN
 70
     0
  3
Hidden __ __ __ __ __ __ __ __ __ __ __ __ __ _
 72
    65
 73
     2
 40
9.524999999999998
 49
6.349999999999999
 74
     0
 49
-3.174999999999999
 74
     0
  0
LTYPE
  5
43AD
330
5
100
AcDbSymbolTableRecord
100
AcDbLinetypeTableRecord
  2
CENTER
 70
     0
  3
Center ____ _ ____ _ ____ _ ____ _ ____ _ ____
 72
    65
 73
     4
 40
50.8
 49
31.75
 74
     0
 49
-6.349999999999999
 74
     0
 49
6.349999999999999
 74
     0
 49
-6.349999999999999
 74
     0
  0
LTYPE
  5
43AE
330
5
100
AcDbSymbolTableRecord
100
AcDbLinetypeTableRecord
  2
AM_ISO08W050
 70
     0
  3
____ . ____ . ____ . ____ . ____ . ____ . ____
 72
    65
 73
     4
 40
18.0
 49
12.0
 74
     0
 49
-1.5
 74
     0
 49
3.0
 74
     0
 49
-1.5
 74
     0
  0
LTYPE
  5
43AF
330
5
100
AcDbSymbolTableRecord
100
AcDbLinetypeTableRecord
  2
CENTER2
 70
     0
  3
Center (.5x) ___ _ ___ _ ___ _ ___ _ ___ _ ___
 72
    65
 73
     4
 40
28.575
 49
19.05
 74
     0
 49
-3.174999999999998
 74
     0
 49
3.174999999999998
 74
     0
 49
-3.174999999999998
 74
     0
  0
LTYPE
  5
43B0
330
5
100
AcDbSymbolTableRecord
100
AcDbLinetypeTableRecord
  2
Amzigzag2
 70
     0
  3
/\/-/\/-/\/-/\/-/\/-/\/
 72
    65
 73
     2
 40
0.4401
 49
0.0001
 74
     4
 75
   136
340
43D2
 46
0.0016
 50
0.0
 44
0.0
 45
0.0
 49
-0.4400000000000003
 74
     0
  0
LTYPE
  5
741A
330
5
100
AcDbSymbolTableRecord
100
AcDbLinetypeTableRecord
  2
PHANTOM
 70
     0
  3
----- - - ----- - - ----- - -
 72
    65
 73
     6
 40
12.0
 49
7.0
 74
     0
 49
-1.0
 74
     0
 49
1.0
 74
     0
 49
-1.0
 74
     0
 49
1.0
 74
     0
 49
-1.0
 74
     0
  0
ENDTAB
  0
TABLE
  2
LAYER
  5
2
102
{ACAD_XDICTIONARY
360
97
102
}
330
0
100
AcDbSymbolTable
 70
    19
  0
LAYER
  5
10
330
2
100
AcDbSymbolTableRecord
100
AcDbLayerTableRecord
  2
0
 70
     0
 62
     7
  6
Continuous
370
    -3
390
F
  0
LAYER
  5
9F
330
2
100
AcDbSymbolTableRecord
100
AcDbLayerTableRecord
  2
Defpoints
 70
     0
 62
     7
  6
Continuous
290
     0
370
    -3
390
F
  0
LAYER
  5
152
330
2
100
AcDbSymbolTableRecord
100
AcDbLayerTableRecord
  2
product
 70
     0
 62
     7
  6
Continuous
370
    18
390
F
  0
LAYER
  5
153
330
2
100
AcDbSymbolTableRecord
100
AcDbLayerTableRecord
  2
dimensions
 70
     0
 62
     7
  6
Continuous
370
     9
390
F
1001
AcAecLayerStandard
1000

1000

  0
LAYER
  5
43B1
102
{ACAD_XDICTIONARY
360
43B2
102
}
330
2
100
AcDbSymbolTableRecord
100
AcDbLayerTableRecord
  2
CENTER
 70
     0
 62
     6
  6
ACAD_ISO04W100
370
    -3
390
F
  0
LAYER
  5
43B4
102
{ACAD_XDICTIONARY
360
43B5
102
}
330
2
100
AcDbSymbolTableRecord
100
AcDbLayerTableRecord
  2
\M+5B1EA\M+5D7A2
 70
     0
 62
     6
  6
Continuous
370
    -3
390
F
1001
AcadStringInfo
1000
MIFCodePage
1070
     5
  0
LAYER
  5
43B7
102
{ACAD_XDICTIONARY
360
43B8
102
}
330
2
100
AcDbSymbolTableRecord
100
AcDbLayerTableRecord
  2
1710
 70
     0
 62
     7
  6
Continuous
370
    -3
390
F
  0
LAYER
  5
43BA
102
{ACAD_XDICTIONARY
360
43BB
102
}
330
2
100
AcDbSymbolTableRecord
100
AcDbLayerTableRecord
  2
\M+5C9CF\M+5D0CD\M+5CFDF
 70
     0
 62
     7
  6
Continuous
370
    -3
390
F
1001
AcadStringInfo
1000
MIFCodePage
1070
     5
  0
LAYER
  5
43BD
102
{ACAD_XDICTIONARY
360
43BE
102
}
330
2
100
AcDbSymbolTableRecord
100
AcDbLayerTableRecord
  2
\M+5CDBC\M+5B2E31
 70
     0
 62
     7
  6
Continuous
370
    -3
390
F
1001
AcadStringInfo
1000
MIFCodePage
1070
     5
  0
LAYER
  5
43C0
102
{ACAD_XDICTIONARY
360
43C1
102
}
330
2
100
AcDbSymbolTableRecord
100
AcDbLayerTableRecord
  2
\M+5CDBC\M+5B2E32
 70
     0
 62
   170
  6
CENTER
370
    -3
390
F
1001
AcadStringInfo
1000
MIFCodePage
1070
     5
  0
LAYER
  5
43C3
102
{ACAD_XDICTIONARY
360
43C4
102
}
330
2
100
AcDbSymbolTableRecord
100
AcDbLayerTableRecord
  2
epron
 70
     0
 62
     7
  6
Continuous
370
    -3
390
F
  0
LAYER
  5
43C6
102
{ACAD_XDICTIONARY
360
43C7
102
}
330
2
100
AcDbSymbolTableRecord
100
AcDbLayerTableRecord
  2
BANE_KANAGU
 70
     0
 62
     1
  6
Continuous
370
    -3
390
F
  0
LAYER
  5
43C9
102
{ACAD_XDICTIONARY
360
43CA
102
}
330
2
100
AcDbSymbolTableRecord
100
AcDbLayerTableRecord
  2
AM_7
 70
     0
 62
     4
  6
AM_ISO08W050
370
    25
390
F
  0
LAYER
  5
43CC
102
{ACAD_XDICTIONARY
360
43CD
102
}
330
2
100
AcDbSymbolTableRecord
100
AcDbLayerTableRecord
  2
AM_INV
 70
     0
 62
   253
  6
Continuous
370
     0
390
F
  0
LAYER
  5
43CF
102
{ACAD_XDICTIONARY
360
43D0
102
}
330
2
100
AcDbSymbolTableRecord
100
AcDbLayerTableRecord
  2
\M+5C8B9\M+5B0E5
 70
     0
 62
   255
  6
Continuous
370
    -3
390
F
1001
AcadStringInfo
1000
MIFCodePage
1070
     5
  0
LAYER
  5
D2E6
330
2
100
AcDbSymbolTableRecord
100
AcDbLayerTableRecord
  2
PIC01
 70
     0
 62
     7
  6
Continuous
370
    -3
390
F
  0
LAYER
  5
D2E7
330
2
100
AcDbSymbolTableRecord
100
AcDbLayerTableRecord
  2
DRAW1
 70
     0
 62
     7
  6
Continuous
370
    -3
390
F
  0
LAYER
  5
DC55
330
2
100
AcDbSymbolTableRecord
100
AcDbLayerTableRecord
  2
cen
 70
     0
 62
     1
  6
CENTER2
370
     9
390
F
  0
LAYER
  5
DC56
330
2
100
AcDbSymbolTableRecord
100
AcDbLayerTableRecord
  2
dim
 70
     0
 62
     3
  6
Continuous
370
     9
390
F
1001
AcAecLayerStandard
1000

1000

  0
ENDTAB
  0
TABLE
  2
STYLE
  5
3
330
0
100
AcDbSymbolTable
 70
     4
  0
STYLE
  5
11
330
3
100
AcDbSymbolTableRecord
100
AcDbTextStyleTableRecord
  2
Standard
 70
     0
 40
0.0
 41
1.0
 50
0.0
 71
     0
 42
0.875
  3
ARIAL.TTF
  4

1001
ACAD
1000
Arial
1071
       34
  0
STYLE
  5
43D2
330
3
100
AcDbSymbolTableRecord
100
AcDbTextStyleTableRecord
  2

 70
     1
 40
0.0
 41
1.0
 50
0.0
 71
     0
 42
6.0
  3
genltshp.shx
  4

  0
STYLE
  5
43D3
330
3
100
AcDbSymbolTableRecord
100
AcDbTextStyleTableRecord
  2
\M+5D1F9\M+5CABD 5
 70
     0
 40
3.0
 41
1.0
 50
0.0
 71
     0
 42
3.0
  3
SimSun.ttf
  4

1001
ACAD
1000
SimSun
1071
    34306
1001
AcadStringInfo
1000
MIFCodePage
1070
     5
  0
STYLE
  5
DC57
330
3
100
AcDbSymbolTableRecord
100
AcDbTextStyleTableRecord
  2
chinese
 70
     0
 40
5.0
 41
1.0
 50
0.0
 71
     0
 42
5.0
  3
SimSun.ttf
  4

1001
ACAD
1000
SimSun
1071
    34306
  0
ENDTAB
  0
TABLE
  2
VIEW
  5
6
330
0
100
AcDbSymbolTable
 70
     3
  0
ENDTAB
  0
TABLE
  2
UCS
  5
7
330
0
100
AcDbSymbolTable
 70
     0
  0
ENDTAB
  0
TABLE
  2
APPID
  5
9
330
0
100
AcDbSymbolTable
 70
    18
  0
APPID
  5
12
330
9
100
AcDbSymbolTableRecord
100
AcDbRegAppTableRecord
  2
ACAD
 70
     0
  0
APPID
  5
8F
330
9
100
AcDbSymbolTableRecord
100
AcDbRegAppTableRecord
  2
ACAD_PSEXT
 70
     0
  0
APPID
  5
156
330
9
100
AcDbSymbolTableRecord
100
AcDbRegAppTableRecord
  2
ACAD_DSTYLE_DIMEXT_LENGTH
 70
     0
  0
APPID
  5
157
330
9
100
AcDbSymbolTableRecord
100
AcDbRegAppTableRecord
  2
ACAD_DSTYLE_DIMEXT_ENABLED
 70
     0
  0
APPID
  5
158
330
9
100
AcDbSymbolTableRecord
100
AcDbRegAppTableRecord
  2
ACAD_DSTYLE_DIMJOGGED_JOGANGLE_SYMBOL
 70
     0
  0
APPID
  5
159
330
9
100
AcDbSymbolTableRecord
100
AcDbRegAppTableRecord
  2
ACAD_DSTYLE_DIMARC_LENGTH_SYMBOL
 70
     0
  0
APPID
  5
15A
330
9
100
AcDbSymbolTableRecord
100
AcDbRegAppTableRecord
  2
AcAecLayerStandard
 70
     0
  0
APPID
  5
348
330
9
100
AcDbSymbolTableRecord
100
AcDbRegAppTableRecord
  2
ACAD_DIMASSOC_CALC_DIMLFAC
 70
     0
  0
APPID
  5
349
330
9
100
AcDbSymbolTableRecord
100
AcDbRegAppTableRecord
  2
ACAD_DIMASSOC_DIMLFAC
 70
     0
  0
APPID
  5
34A
330
9
100
AcDbSymbolTableRecord
100
AcDbRegAppTableRecord
  2
ACAD_DIMASSOC_OVERRIDDEN_DIMLFAC
 70
     0
  0
APPID
  5
370
330
9
100
AcDbSymbolTableRecord
100
AcDbRegAppTableRecord
  2
ACAD_DSTYLE_DIMTEXT_FILL
 70
     0
  0
APPID
  5
373
330
9
100
AcDbSymbolTableRecord
100
AcDbRegAppTableRecord
  2
ACAD_DSTYLE_DIM_LINETYPE
 70
     0
  0
APPID
  5
374
330
9
100
AcDbSymbolTableRecord
100
AcDbRegAppTableRecord
  2
ACAD_DSTYLE_DIM_EXT1_LINETYPE
 70
     0
  0
APPID
  5
375
330
9
100
AcDbSymbolTableRecord
100
AcDbRegAppTableRecord
  2
ACAD_DSTYLE_DIM_EXT2_LINETYPE
 70
     0
  0
APPID
  5
43D4
330
9
100
AcDbSymbolTableRecord
100
AcDbRegAppTableRecord
  2
AcadStringInfo
 70
     0
  0
APPID
  5
43D5
330
9
100
AcDbSymbolTableRecord
100
AcDbRegAppTableRecord
  2
GENIUS_GENBH_13
 70
     0
  0
APPID
  5
BA33
330
9
100
AcDbSymbolTableRecord
100
AcDbRegAppTableRecord
  2
DCO15
 70
     0
  0
APPID
  5
CA30
330
9
100
AcDbSymbolTableRecord
100
AcDbRegAppTableRecord
  2
ACAD_EXEMPT_FROM_CAD_STANDARDS
 70
     0
  0
ENDTAB
  0
TABLE
  2
DIMSTYLE
  5
A
330
0
100
AcDbSymbolTable
 70
     3
100
AcDbDimStyleTable
 71
     3
340
C09A
340
BF09
340
27
  0
DIMSTYLE
105
27
330
A
100
AcDbSymbolTableRecord
100
AcDbDimStyleTableRecord
  2
Standard
 70
     0
  3
"
  4
mm
 44
0.0625
171
     0
177
   256
274
     0
276
     2
277
     5
340
11
371
    -1
372
    -1
1001
ACAD_DSTYLE_DIMEXT_LENGTH
1070
   378
1040
0.18
1001
ACAD_DSTYLE_DIMEXT_ENABLED
1070
   383
1070
     0
1001
ACAD_DSTYLE_DIMARC_LENGTH_SYMBOL
1070
   379
1070
     0
1001
ACAD_DSTYLE_DIMJOGGED_JOGANGLE_SYMBOL
1070
   384
1040
0.7853981633974483
1001
ACAD_DSTYLE_DIM_LINETYPE
1070
   380
1005
15
1001
ACAD_DSTYLE_DIM_EXT1_LINETYPE
1070
   381
1005
15
1001
ACAD_DSTYLE_DIM_EXT2_LINETYPE
1070
   382
1005
15
  0
DIMSTYLE
105
BF09
330
A
100
AcDbSymbolTableRecord
100
AcDbDimStyleTableRecord
  2
spec dim1
 70
     0
  3
"
  4
mm
 41
0.875
 44
0.0625
140
0.875
170
     1
171
     0
177
   256
274
     0
276
     2
277
     5
340
11
371
    -1
372
    -1
1001
ACAD_DSTYLE_DIMEXT_LENGTH
1070
   378
1040
0.18
1001
ACAD_DSTYLE_DIMEXT_ENABLED
1070
   383
1070
     0
1001
ACAD_DSTYLE_DIMARC_LENGTH_SYMBOL
1070
   379
1070
     0
1001
ACAD_DSTYLE_DIMJOGGED_JOGANGLE_SYMBOL
1070
   384
1040
0.7853981633974483
1001
ACAD_DSTYLE_DIM_LINETYPE
1070
   380
1005
15
1001
ACAD_DSTYLE_DIM_EXT1_LINETYPE
1070
   381
1005
15
1001
ACAD_DSTYLE_DIM_EXT2_LINETYPE
1070
   382
1005
15
  0
DIMSTYLE
105
C09A
330
A
100
AcDbSymbolTableRecord
100
AcDbDimStyleTableRecord
  2
spec dim2
 70
     0
  3
"
  4
mm
 41
1.8
 44
0.0625
140
1.8
170
     1
171
     0
177
   256
274
     0
276
     2
277
     5
340
11
371
    -1
372
    -1
1001
ACAD_DSTYLE_DIMEXT_LENGTH
1070
   378
1040
0.18
1001
ACAD_DSTYLE_DIMEXT_ENABLED
1070
   383
1070
     0
1001
ACAD_DSTYLE_DIMARC_LENGTH_SYMBOL
1070
   379
1070
     0
1001
ACAD_DSTYLE_DIMJOGGED_JOGANGLE_SYMBOL
1070
   384
1040
0.7853981633974483
1001
ACAD_DSTYLE_DIM_LINETYPE
1070
   380
1005
15
1001
ACAD_DSTYLE_DIM_EXT1_LINETYPE
1070
   381
1005
15
1001
ACAD_DSTYLE_DIM_EXT2_LINETYPE
1070
   382
1005
15
  0
ENDTAB
  0
TABLE
  2
BLOCK_RECORD
  5
1
330
0
100
AcDbSymbolTable
 70
    21
  0
BLOCK_RECORD
  5
1F
102
{ACAD_XDICTIONARY
360
C9C7
102
}
330
1
100
AcDbSymbolTableRecord
100
AcDbBlockTableRecord
  2
*Model_Space
340
22
  0
BLOCK_RECORD
  5
73E5
330
1
100
AcDbSymbolTableRecord
100
AcDbBlockTableRecord
  2
*Paper_Space
340
73E6
  0
BLOCK_RECORD
  5
B2
102
{ACAD_XDICTIONARY
360
B3
102
}
330
1
100
AcDbSymbolTableRecord
100
AcDbBlockTableRecord
  2
A$C75E7028D
340
0
  0
BLOCK_RECORD
  5
4311
102
{ACAD_XDICTIONARY
360
4312
102
}
330
1
100
AcDbSymbolTableRecord
100
AcDbBlockTableRecord
  2
A$C36E445EB
340
0
  0
BLOCK_RECORD
  5
DC28
330
1
100
AcDbSymbolTableRecord
100
AcDbBlockTableRecord
  2
*D7
340
0
  0
BLOCK_RECORD
  5
E09F
102
{ACAD_XDICTIONARY
360
E0CC
102
}
330
1
100
AcDbSymbolTableRecord
100
AcDbBlockTableRecord
  2
A$C65A8616D
340
0
1001
ACAD
1000
DesignCenter Data
1002
{
1070
     1
1070
     1
1002
}
  0
BLOCK_RECORD
  5
E166
330
1
100
AcDbSymbolTableRecord
100
AcDbBlockTableRecord
  2
*D9
340
0
  0
BLOCK_RECORD
  5
E180
330
1
100
AcDbSymbolTableRecord
100
AcDbBlockTableRecord
  2
*D10
340
0
  0
BLOCK_RECORD
  5
E19A
330
1
100
AcDbSymbolTableRecord
100
AcDbBlockTableRecord
  2
*D11
340
0
  0
BLOCK_RECORD
  5
E466
330
1
100
AcDbSymbolTableRecord
100
AcDbBlockTableRecord
  2
*D13
340
0
  0
BLOCK_RECORD
  5
E4D9
330
1
100
AcDbSymbolTableRecord
100
AcDbBlockTableRecord
  2
*D14
340
0
  0
BLOCK_RECORD
  5
E4F3
330
1
100
AcDbSymbolTableRecord
100
AcDbBlockTableRecord
  2
*D15
340
0
  0
BLOCK_RECORD
  5
E555
330
1
100
AcDbSymbolTableRecord
100
AcDbBlockTableRecord
  2
*D16
340
0
  0
BLOCK_RECORD
  5
E590
330
1
100
AcDbSymbolTableRecord
100
AcDbBlockTableRecord
  2
*D17
340
0
  0
BLOCK_RECORD
  5
E654
330
1
100
AcDbSymbolTableRecord
100
AcDbBlockTableRecord
  2
*D18
340
0
  0
BLOCK_RECORD
  5
E68F
330
1
100
AcDbSymbolTableRecord
100
AcDbBlockTableRecord
  2
*D19
340
0
  0
BLOCK_RECORD
  5
E8D0
330
1
100
AcDbSymbolTableRecord
100
AcDbBlockTableRecord
  2
*D20
340
0
  0
ENDTAB
  0
ENDSEC
  0
SECTION
  2
BLOCKS
  0
BLOCK
  5
20
330
1F
100
AcDbEntity
  8
0
100
AcDbBlockBegin
  2
*Model_Space
 70
     0
 10
0.0
 20
0.0
 30
0.0
  3
*Model_Space
  1

  0
ENDBLK
  5
21
330
1F
100
AcDbEntity
  8
0
100
AcDbBlockEnd
  0
BLOCK
  5
73E7
330
73E5
100
AcDbEntity
 67
     1
  8
0
100
AcDbBlockBegin
  2
*Paper_Space
 70
     0
 10
0.0
 20
0.0
 30
0.0
  3
*Paper_Space
  1

  0
ENDBLK
  5
73E8
330
73E5
100
AcDbEntity
 67
     1
  8
0
100
AcDbBlockEnd
  0
BLOCK
  5
B5
330
B2
100
AcDbEntity
  8
0
100
AcDbBlockBegin
  2
A$C75E7028D
 70
     0
 10
0.0
 20
0.0
 30
0.0
  3
A$C75E7028D
  1

  0
LINE
  5
B6
330
B2
100
AcDbEntity
  8
0
  6
DASHED
 62
     4
 48
2.0
100
AcDbLine
 10
-7.99999999999747
 20
20.00000000000114
 30
0.0
 11
8.000000000002543
 21
19.99999999999898
 31
0.0
  0
LINE
  5
B7
330
B2
100
AcDbEntity
  8
0
  6
DASHED
 62
     4
 48
2.0
100
AcDbLine
 10
10.00000000000227
 20
17.99999999999875
 30
0.0
 11
9.999999999997228
 21
-18.00000000000136
 31
0.0
  0
ARC
  5
B8
330
B2
100
AcDbEntity
  8
0
  6
DASHED
 62
     4
 48
2.0
100
AcDbCircle
 10
8.000000000002273
 20
17.99999999999897
 30
0.0
 40
2.0
100
AcDbArc
 50
359.9999999999935
 51
89.99999999999266
  0
LINE
  5
B9
330
B2
100
AcDbEntity
  8
0
  6
DASHED
 62
     4
 48
2.0
100
AcDbLine
 10
-8.000000000002728
 20
-19.99999999999875
 30
0.0
 11
7.99999999999693
 21
-20.00000000000114
 31
0.0
  0
ARC
  5
BA
330
B2
100
AcDbEntity
  8
0
  6
DASHED
 62
     4
 48
2.0
100
AcDbCircle
 10
-8.000000000002444
 20
-17.99999999999875
 30
0.0
 40
2.0
100
AcDbArc
 50
179.9999999999935
 51
269.9999999999919
  0
ARC
  5
BB
330
B2
100
AcDbEntity
  8
0
  6
DASHED
 62
     4
 48
2.0
100
AcDbCircle
 10
7.999999999997228
 20
-18.00000000000114
 30
0.0
 40
2.0
100
AcDbArc
 50
269.9999999999919
 51
359.9999999999935
  0
LINE
  5
BC
330
B2
100
AcDbEntity
  8
0
  6
DASHED
 62
     4
 48
2.0
100
AcDbLine
 10
-9.999999999997726
 20
18.00000000000136
 30
0.0
 11
-10.00000000000244
 21
-17.99999999999852
 31
0.0
  0
ARC
  5
BD
330
B2
100
AcDbEntity
  8
0
  6
DASHED
 62
     4
 48
2.0
100
AcDbCircle
 10
-7.999999999997726
 20
18.00000000000114
 30
0.0
 40
2.0
100
AcDbArc
 50
89.99999999999266
 51
179.9999999999935
  0
LINE
  5
BE
330
B2
100
AcDbEntity
  8
0
  6
\M+19286\M+19053\M+190FC
 62
     4
 48
0.5
100
AcDbLine
 10
-8.389327847191253
 20
0.0000000000011369
 30
0.0
 11
8.389327847191168
 21
-0.0000000000010232
 31
0.0
  0
LINE
  5
BF
330
B2
100
AcDbEntity
  8
0
  6
\M+19286\M+19053\M+190FC
 62
     4
 48
0.5
100
AcDbLine
 10
0.0000000000013074
 20
9.671579624598507
 30
0.0
 11
-0.0000000000013074
 21
-9.671579624598507
 31
0.0
  0
CIRCLE
  5
C0
330
B2
100
AcDbEntity
  8
0
  6
DASHED
 62
     4
 48
2.0
100
AcDbCircle
 10
0.0
 20
0.0
 30
0.0
 40
5.0
  0
POINT
  5
C1
330
B2
100
AcDbEntity
  8
Defpoints
  6
ByBlock
 62
     4
 48
2.0
100
AcDbPoint
 10
9.999999999996958
 20
-20.00000000000148
 30
0.0
 50
269.9999999999922
  0
POINT
  5
C2
330
B2
100
AcDbEntity
  8
0
  6
DASHED
 62
     4
 48
5.0
100
AcDbPoint
 10
-10.00000000000271
 20
-19.99999999999852
 30
0.0
 50
269.9999999999922
  0
POINT
  5
C3
330
B2
100
AcDbEntity
  8
0
  6
DASHED
 62
     4
 48
5.0
100
AcDbPoint
 10
10.00000000000254
 20
19.99999999999875
 30
0.0
 50
269.9999999999922
  0
CIRCLE
  5
C4
330
B2
100
AcDbEntity
  8
0
  6
DASHED
 62
     4
 48
2.0
100
AcDbCircle
 10
0.0
 20
0.0
 30
0.0
 40
4.0
  0
ENDBLK
  5
C5
330
B2
100
AcDbEntity
  8
0
100
AcDbBlockEnd
  0
BLOCK
  5
4314
330
4311
100
AcDbEntity
  8
0
 62
     2
370
    -3
100
AcDbBlockBegin
  2
A$C36E445EB
 70
     0
 10
0.0
 20
0.0
 30
0.0
  3
A$C36E445EB
  1

  0
LINE
  5
4315
102
{ACAD_REACTORS
330
4322
102
}
330
4311
100
AcDbEntity
  8
0
  6
ByBlock
100
AcDbLine
 10
14.61553282762179
 20
27.73352210156736
 30
0.0
 11
20.23930918623228
 21
3.374270481937855
 31
0.0
  0
LINE
  5
4316
102
{ACAD_REACTORS
330
4322
102
}
330
4311
100
AcDbEntity
  8
0
  6
ByBlock
100
AcDbLine
 10
13.64116276285495
 20
27.50857104722673
 30
0.0
 11
19.26493912143633
 21
3.149319427593582
 31
0.0
  0
LINE
  5
4317
330
4311
100
AcDbEntity
  8
0
  6
ByBlock
100
AcDbLine
 10
-0.000018144142814
 20
24.35925628641053
 30
0.0
 11
5.623758214438566
 21
0.0000046667810238
 31
0.0
  0
LINE
  5
4318
330
4311
100
AcDbEntity
  8
0
  6
ByBlock
100
AcDbLine
 10
20.23930918623228
 20
3.374270481937855
 30
0.0
 11
5.623758214438566
 21
0.0000046667810238
 31
0.0
  0
LINE
  5
4319
330
4311
100
AcDbEntity
  8
epron
  6
CENTER2
 62
     1
100
AcDbLine
 10
7.890199119574388
 20
13.35205512625907
 30
0.0
 11
1.878025298181455
 21
11.96403543138149
 31
0.0
  0
LINE
  5
431A
330
4311
100
AcDbEntity
  8
\M+5CDBC\M+5B2E32
 48
0.2
100
AcDbLine
 10
4.416196884296367
 20
16.65523494540321
 30
0.0
 11
3.44182681950042
 21
16.43028389106257
 31
0.0
  0
LINE
  5
431B
330
4311
100
AcDbEntity
  8
\M+5CDBC\M+5B2E32
 48
0.2
100
AcDbLine
 10
6.215805319050557
 20
8.860274427122931
 30
0.0
 11
5.241435254254611
 21
8.635323372782295
 31
0.0
  0
LINE
  5
431C
330
4311
100
AcDbEntity
  8
epron
  6
CENTER2
 62
     1
100
AcDbLine
 10
22.73837887422997
 20
13.18796315044165
 30
0.0
 11
13.64256524736993
 21
11.08802911159
 31
0.0
  0
LINE
  5
431D
102
{ACAD_REACTORS
330
4322
102
}
330
4311
100
AcDbEntity
  8
0
  6
ByBlock
100
AcDbLine
 10
17.31494547973852
 20
16.0410813241433
 30
0.0
 11
16.34057541500078
 21
15.81613026980267
 31
0.0
  0
LINE
  5
431E
102
{ACAD_REACTORS
330
4322
102
}
330
4311
100
AcDbEntity
  8
0
  6
ByBlock
100
AcDbLine
 10
14.61553282762179
 20
27.73352210156736
 30
0.0
 11
-0.000018144142814
 21
24.35925628641053
 31
0.0
  0
LINE
  5
431F
330
4311
100
AcDbEntity
  8
0
  6
ByBlock
100
AcDbLine
 10
1.529742857557719
 20
24.71242944173355
 30
0.0
 11
7.153519216197308
 21
0.353177822104044
 31
0.0
  0
LINE
  5
4320
330
4311
100
AcDbEntity
  8
0
  6
ByBlock
100
AcDbLine
 10
2.504112922382772
 20
24.93738049608146
 30
0.0
 11
8.127889280964152
 21
0.57812887644468
 31
0.0
  0
LINE
  5
4321
330
4311
100
AcDbEntity
  8
\M+5B1EA\M+5D7A2
  6
ByBlock
100
AcDbLine
 10
4.341631036892066
 20
12.53280363192607
 30
0.0
 11
4.341631036892066
 21
12.53280363192607
 31
0.0
  0
HATCH
  5
4322
330
4311
100
AcDbEntity
  8
\M+5B1EA\M+5D7A2
  6
ByBlock
100
AcDbHatch
 10
0.0
 20
0.0
 30
0.0
210
0.0
220
0.0
230
1.0
  2
ANSI31
 70
     0
 71
     1
 91
        1
 92
        7
 72
     0
 73
     1
 93
        4
 10
14.61553282762179
 20
27.73352210156736
 10
13.64116276285475
 20
27.50857104722755
 10
16.34057541497539
 20
15.8161302697968
 10
17.31494547975441
 20
16.04108132414697
 97
        4
330
431E
330
4315
330
431D
330
4316
 75
     0
 76
     1
 52
5.0
 41
0.5
 77
     0
 78
     1
 53
140.0
 43
52567.55519395428
 44
3843.430503517029
 45
1.020425330377379
 46
1.216095553451377
 79
     0
 47
0.0924411634878856
 98
        1
 10
15.12777253420791
 20
23.40409978697426
  0
ENDBLK
  5
4323
330
4311
100
AcDbEntity
  8
0
 62
     2
370
    -3
100
AcDbBlockEnd
  0
BLOCK
  5
DC33
330
DC28
100
AcDbEntity
  8
0
100
AcDbBlockBegin
  2
*D7
 70
     1
 10
0.0
 20
0.0
 30
0.0
  3
*D7
  1

  0
LINE
  5
E617
330
DC28
100
AcDbEntity
  8
0
100
AcDbLine
 10
230.2339473955082
 20
37.56023692119482
 30
0.0
 11
228.0453617575436
 21
37.56023692119482
 31
0.0
  0
LINE
  5
E618
330
DC28
100
AcDbEntity
  8
0
100
AcDbLine
 10
227.1600179564421
 20
54.92615301723398
 30
0.0
 11
228.1703617575435
 21
54.92615301723398
 31
0.0
  0
LINE
  5
E619
330
DC28
100
AcDbEntity
  8
0
 62
     0
100
AcDbLine
 10
228.1078617575436
 20
38.43523692119482
 30
0.0
 11
228.1078617575436
 21
45.83319496921436
 31
0.0
  0
LINE
  5
E61A
330
DC28
100
AcDbEntity
  8
0
 62
     0
100
AcDbLine
 10
228.1078617575436
 20
54.05115301723398
 30
0.0
 11
228.1078617575436
 21
47.96603944397562
 31
0.0
  0
SOLID
  5
E61B
330
DC28
100
AcDbEntity
  8
0
 62
     0
100
AcDbTrace
 10
227.9620284242102
 20
38.43523692119482
 30
0.0
 11
228.2536950908769
 21
38.43523692119482
 31
0.0
 12
228.1078617575436
 22
37.56023692119482
 32
0.0
 13
228.1078617575436
 23
37.56023692119482
 33
0.0
  0
SOLID
  5
E61C
330
DC28
100
AcDbEntity
  8
0
 62
     0
100
AcDbTrace
 10
227.9620284242102
 20
54.05115301723398
 30
0.0
 11
228.2536950908769
 21
54.05115301723398
 31
0.0
 12
228.1078617575436
 22
54.92615301723398
 32
0.0
 13
228.1078617575436
 23
54.92615301723398
 33
0.0
  0
MTEXT
  5
E61D
330
DC28
100
AcDbEntity
  8
0
 62
     0
100
AcDbMText
 10
228.1078617575436
 20
46.89961720659503
 30
0.0
 40
0.875
 41
0.0
 71
     5
 72
     1
  1
\A1;17 3/8" [441mm]
 73
     1
 44
1.0
  0
POINT
  5
E61E
330
DC28
100
AcDbEntity
  8
Defpoints
 62
     0
100
AcDbPoint
 10
230.2964473955082
 20
37.56023692119482
 30
0.0
  0
POINT
  5
E61F
330
DC28
100
AcDbEntity
  8
Defpoints
 62
     0
100
AcDbPoint
 10
227.0975179564421
 20
54.92615301723398
 30
0.0
  0
POINT
  5
E620
330
DC28
100
AcDbEntity
  8
Defpoints
 62
     0
100
AcDbPoint
 10
228.1078617575436
 20
54.92615301723398
 30
0.0
  0
ENDBLK
  5
DC34
330
DC28
100
AcDbEntity
  8
0
100
AcDbBlockEnd
  0
BLOCK
  5
E0CE
330
E09F
100
AcDbEntity
  8
0
100
AcDbBlockBegin
  2
A$C65A8616D
 70
     0
 10
0.0
 20
0.0
 30
0.0
  3
A$C65A8616D
  1

  0
LINE
  5
E0A0
330
E09F
100
AcDbEntity
  8
0
  6
HIDDEN
 48
0.05
100
AcDbLine
 10
-0.000001614552616
 20
5.453464917241717
 30
0.0
 11
-0.000001614552616
 21
4.784086517241718
 31
0.0
  0
LINE
  5
E0A1
330
E09F
100
AcDbEntity
  8
0
  6
HIDDEN
 48
5.0
100
AcDbLine
 10
0.3543751854473953
 20
4.60689811724174
 30
0.0
 11
0.3543751854473953
 21
4.554220716545657
 31
0.0
  0
LINE
  5
E0A2
330
E09F
100
AcDbEntity
  8
0
  6
HIDDEN
 48
5.0
100
AcDbLine
 10
0.6693767854473834
 20
0.3937517172417415
 30
0.0
 11
0.6693767854473834
 21
0.5315649172417239
 31
0.0
  0
LINE
  5
E0A3
330
E09F
100
AcDbEntity
  8
0
  6
HIDDEN
 48
0.1
100
AcDbLine
 10
0.6693767854473834
 20
0.5315649172417239
 30
0.0
 11
0.6693767854473834
 21
4.095020517241721
 31
0.0
  0
LINE
  5
E0A4
330
E09F
100
AcDbEntity
  8
0
  6
HIDDEN
 48
5.0
100
AcDbLine
 10
0.6700120346210383
 20
-0.0000002827582648
 30
0.0
 11
0.6700120346210383
 21
0.2759774676933375
 31
0.0
  0
LINE
  5
E0A5
330
E09F
100
AcDbEntity
  8
0
  6
HIDDEN
 48
5.0
100
AcDbLine
 10
3.543766385447383
 20
3.446524003865675
 30
0.0
 11
3.543766385447383
 21
3.933463402357574
 31
0.0
  0
LINE
  5
E0A6
330
E09F
100
AcDbEntity
  8
0
  6
HIDDEN
 48
0.01
100
AcDbLine
 10
3.750957257291247
 20
4.255488404071456
 30
0.0
 11
3.576926149725835
 21
4.095020517241721
 31
0.0
  0
LINE
  5
E0A7
330
E09F
100
AcDbEntity
  8
0
  6
HIDDEN
 48
5.0
100
AcDbLine
 10
3.8587679854474
 20
4.60689811724174
 30
0.0
 11
3.8587679854474
 21
4.501543315849573
 31
0.0
  0
LINE
  5
E0A8
330
E09F
100
AcDbEntity
  8
0
  6
HIDDEN
 48
0.05
100
AcDbLine
 10
4.213144785447383
 20
5.453464917241717
 30
0.0
 11
4.213144785447383
 21
4.784086517241718
 31
0.0
  0
LINE
  5
E0A9
330
E09F
100
AcDbEntity
  8
0
  6
HIDDEN
 48
5.0
100
AcDbLine
 10
0.5287622089622346
 20
4.19398883911208
 30
0.0
 11
0.604249407939733
 21
4.124584748653433
 31
0.0
  0
LINE
  5
E0AA
330
E09F
100
AcDbEntity
  8
0
  6
HIDDEN
 48
5.0
100
AcDbLine
 10
3.643508736225157
 20
3.273976315373147
 30
0.0
 11
3.86049105300367
 21
2.897984229635682
 31
0.0
  0
LINE
  5
E0AB
330
E09F
100
AcDbEntity
  8
0
  6
HIDDEN
 48
0.1
100
AcDbLine
 10
0.6700120346210383
 20
-0.0000002827582648
 30
0.0
 11
4.845218546023261
 21
-0.0000002827582648
 31
0.0
  0
LINE
  5
E0AC
330
E09F
100
AcDbEntity
  8
0
  6
HIDDEN
 48
0.1
100
AcDbLine
 10
5.729089985447387
 20
0.3583140372417404
 30
0.0
 11
5.729089985447387
 21
2.996452437241742
 31
0.0
  0
LINE
  5
E0AD
330
E09F
100
AcDbEntity
  8
0
  6
HIDDEN
 48
0.1
100
AcDbLine
 10
3.860438731899421
 20
2.898014437241727
 30
0.0
 11
5.70940238544739
 21
2.898014437241727
 31
0.0
  0
LINE
  5
E0AE
330
E09F
100
AcDbEntity
  8
0
  6
HIDDEN
 48
0.1
100
AcDbLine
 10
3.576926149725835
 20
4.095020517241721
 30
0.0
 11
0.6362170211689318
 21
4.095020517241721
 31
0.0
  0
LINE
  5
E0AF
330
E09F
100
AcDbEntity
  8
0
  6
HIDDEN
 48
0.1
100
AcDbLine
 10
0.137903948869905
 20
4.646273317241735
 30
0.0
 11
2.087501338994258
 21
4.646273317241735
 31
0.0
  0
LINE
  5
E0B0
330
E09F
100
AcDbEntity
  8
0
  6
HIDDEN
 48
0.1
100
AcDbLine
 10
2.125641831900509
 20
4.646273317241735
 30
0.0
 11
4.07523922202489
 21
4.646273317241735
 31
0.0
  0
LINE
  5
E0B1
330
E09F
100
AcDbEntity
  8
0
  6
HIDDEN
 48
0.1
100
AcDbLine
 10
-0.000001614552616
 20
4.784086517241718
 30
0.0
 11
4.213144785447383
 21
4.784086517241718
 31
0.0
  0
LINE
  5
E0B2
330
E09F
100
AcDbEntity
  8
0
  6
HIDDEN
 48
0.1
100
AcDbLine
 10
4.213144785447383
 20
5.453464917241717
 30
0.0
 11
-0.000001614552616
 21
5.453464917241717
 31
0.0
  0
ARC
  5
E0B3
330
E09F
100
AcDbEntity
  8
0
  6
HIDDEN
 48
0.012
100
AcDbCircle
 10
3.524078785447386
 20
4.501543315849573
 30
0.0
 40
0.3346891999999999
100
AcDbArc
 50
312.6780503247031
 51
0.0
  0
ARC
  5
E0B4
330
E09F
100
AcDbEntity
  8
0
  6
HIDDEN
 48
0.02
100
AcDbCircle
 10
0.6890643854473808
 20
4.501543315849573
 30
0.0
 40
0.3346891999999999
100
AcDbArc
 50
180.0
 51
227.3219496752968
  0
ARC
  5
E0B5
330
E09F
100
AcDbEntity
  8
0
  6
HIDDEN
 48
5.0
100
AcDbCircle
 10
4.075331585447401
 20
4.784086517241718
 30
0.0
 40
0.1378132
100
AcDbArc
 50
272.8659839826158
 51
0.0
  0
ARC
  5
E0B6
330
E09F
100
AcDbEntity
  8
0
  6
HIDDEN
 48
5.0
100
AcDbCircle
 10
0.1378115854473947
 20
4.784086517241718
 30
0.0
 40
0.1378132
100
AcDbArc
 50
180.0
 51
267.1340160179027
  0
ARC
  5
E0B7
330
E09F
100
AcDbEntity
  8
0
  6
HIDDEN
 48
5.0
100
AcDbCircle
 10
3.898143185447395
 20
4.60689811724174
 30
0.0
 40
0.0393752
100
AcDbArc
 50
90.00000000078653
 51
180.0
  0
ARC
  5
E0B8
330
E09F
100
AcDbEntity
  8
0
  6
HIDDEN
 48
5.0
100
AcDbCircle
 10
0.3149999854474004
 20
4.60689811724174
 30
0.0
 40
0.0393752
100
AcDbArc
 50
0.0
 51
89.99999999971015
  0
ARC
  5
E0B9
330
E09F
100
AcDbEntity
  8
0
  6
HIDDEN
 48
5.0
100
AcDbCircle
 10
5.70940238544739
 20
2.917702037241724
 30
0.0
 40
0.0196876
100
AcDbArc
 50
270.0
 51
359.9999329635982
  0
SPLINE
  5
E0BA
330
E09F
100
AcDbEntity
  8
0
  6
HIDDEN
 48
5.0
100
AcDbSpline
210
0.0
220
0.0
230
1.0
 70
     8
 71
     3
 72
     8
 73
     4
 74
     2
 42
0.0000000001
 43
0.0000000001
 44
0.0000000001
 12
0.9987861346674025
 22
-0.049257052247872
 32
0.0
 13
0.9993260616881734
 23
-0.0367072531089599
 33
0.0
 40
0.0
 40
0.0
 40
0.0
 40
0.0
 40
0.0017871805275449
 40
0.0017871805275449
 40
0.0017871805275449
 40
0.0017871805275449
 10
0.1309209254473842
 20
4.646445691543164
 30
0.0
 10
0.1315159291577373
 20
4.646416347794956
 30
0.0
 10
0.1321111287445525
 20
4.646390736811202
 30
0.0
 10
0.1327064541039249
 20
4.64636886931521
 30
0.0
 11
0.1309209254473842
 21
4.646445691543164
 31
0.0
 11
0.1327064541039249
 21
4.64636886931521
 31
0.0
  0
SPLINE
  5
E0BB
330
E09F
100
AcDbEntity
  8
0
  6
HIDDEN
 48
5.0
100
AcDbSpline
210
0.0
220
0.0
230
1.0
 70
     8
 71
     3
 72
     8
 73
     4
 74
     2
 42
0.0000000001
 43
0.0000000001
 44
0.0000000001
 12
0.9993260616645207
 22
-0.0367072537528818
 32
0.0
 13
1.0
 23
0.0
 33
0.0
 40
0.0
 40
0.0
 40
0.0
 40
0.0
 40
0.0051983730186603
 40
0.0051983730186603
 40
0.0051983730186603
 40
0.0051983730186603
 10
0.1327064541039249
 20
4.64636886931521
 30
0.0
 10
0.1344380773158585
 20
4.646305263316044
 30
0.0
 10
0.1361711578636848
 20
4.646273317241735
 30
0.0
 10
0.137903948869905
 20
4.646273317241735
 30
0.0
 11
0.1327064541039249
 21
4.64636886931521
 31
0.0
 11
0.137903948869905
 21
4.646273317241735
 31
0.0
  0
SPLINE
  5
E0BC
330
E09F
100
AcDbEntity
  8
0
  6
HIDDEN
 48
5.0
100
AcDbSpline
210
0.0
220
0.0
230
1.0
 70
     8
 71
     3
 72
     8
 73
     4
 74
     2
 42
0.0000000001
 43
0.0000000001
 44
0.0000000001
 12
1.0
 22
0.0
 32
0.0
 13
0.9993260614937341
 23
0.0367072584024111
 33
0.0
 40
0.0
 40
0.0
 40
0.0
 40
0.0
 40
0.0051983730183136
 40
0.0051983730183136
 40
0.0051983730183136
 40
0.0051983730183136
 10
4.07523922202489
 20
4.646273317241735
 30
0.0
 10
4.076972013030995
 20
4.646273317241735
 30
0.0
 10
4.078705093579292
 20
4.646305263292218
 30
0.0
 10
4.080436716790813
 20
4.646368869299436
 30
0.0
 11
4.07523922202489
 21
4.646273317241735
 31
0.0
 11
4.080436716790813
 21
4.646368869299436
 31
0.0
  0
SPLINE
  5
E0BD
330
E09F
100
AcDbEntity
  8
0
  6
HIDDEN
 48
5.0
100
AcDbSpline
210
0.0
220
0.0
230
1.0
 70
     8
 71
     3
 72
     8
 73
     4
 74
     2
 42
0.0000000001
 43
0.0000000001
 44
0.0000000001
 12
0.9993260613899908
 22
0.0367072612267481
 32
0.0
 13
0.9987861343270811
 23
0.0492570591485717
 33
0.0
 40
0.0
 40
0.0
 40
0.0
 40
0.0
 40
0.0017871805282514
 40
0.0017871805282514
 40
0.0017871805282514
 40
0.0017871805282514
 10
4.080436716790813
 20
4.646368869299436
 30
0.0
 10
4.081032042150243
 20
4.646390736800273
 30
0.0
 10
4.081627241736997
 20
4.646416347790834
 30
0.0
 10
4.082222245447383
 20
4.646445691543164
 30
0.0
 11
4.080436716790813
 21
4.646368869299436
 31
0.0
 11
4.082222245447383
 21
4.646445691543164
 31
0.0
  0
SPLINE
  5
E0BE
330
E09F
100
AcDbEntity
  8
0
  6
HIDDEN
 48
5.0
100
AcDbSpline
210
0.0
220
0.0
230
1.0
 70
     8
 71
     3
 72
     9
 73
     5
 74
     3
 42
0.0000000001
 43
0.0000000001
 44
0.0000000001
 12
1.0
 22
0.0
 32
0.0
 13
0.9999999947377062
 23
-0.000102589411603
 33
0.0
 40
0.0
 40
0.0
 40
0.0
 40
0.0
 40
0.0088906319947047
 40
0.0191374057262517
 40
0.0191374057262517
 40
0.0191374057262517
 40
0.0191374057262517
 10
2.087501338994258
 20
4.646273317241735
 30
0.0
 10
2.090464882992492
 20
4.646273317241735
 30
0.0
 10
2.096843351905696
 20
4.646388642762836
 30
0.0
 10
2.103222354899811
 20
4.646446038269004
 30
0.0
 10
2.106637946125687
 20
4.646445687865508
 30
0.0
 11
2.087501338994258
 21
4.646273317241735
 31
0.0
 11
2.096391467145735
 21
4.646367967733368
 31
0.0
 11
2.106637946125687
 21
4.646445687865508
 31
0.0
  0
SPLINE
  5
E0BF
330
E09F
100
AcDbEntity
  8
0
  6
HIDDEN
 48
5.0
100
AcDbSpline
210
0.0
220
0.0
230
1.0
 70
     8
 71
     3
 72
     9
 73
     5
 74
     3
 42
0.0000000001
 43
0.0000000001
 44
0.0000000001
 12
0.9999999947377101
 22
-0.0001025893748282
 32
0.0
 13
1.0
 23
0.0
 33
0.0
 40
0.0
 40
0.0
 40
0.0
 40
0.0
 40
0.0101164325851825
 40
0.0190046882075207
 40
0.0190046882075207
 40
0.0190046882075207
 40
0.0190046882075207
 10
2.106637946125687
 20
4.646445687865508
 30
0.0
 10
2.110010090303002
 20
4.646445341919343
 30
0.0
 10
2.116344842958769
 20
4.646387777963887
 30
0.0
 10
2.122679080026396
 20
4.646273317241735
 30
0.0
 10
2.125641831900509
 20
4.646273317241735
 30
0.0
 11
2.106637946125687
 21
4.646445687865508
 31
0.0
 11
2.116754079916347
 21
4.646367935823718
 31
0.0
 11
2.125641831900509
 21
4.646273317241735
 31
0.0
  0
LINE
  5
E0C0
330
E09F
100
AcDbEntity
  8
0
  6
HIDDEN
 48
0.1
100
AcDbLine
 10
12.96031566429224
 20
-0.0000002827582648
 30
0.0
 11
10.40846151646559
 21
-0.0000002827582648
 31
0.0
  0
LINE
  5
E0C1
330
E09F
100
AcDbEntity
  8
0
  6
HIDDEN
 48
0.1
100
AcDbLine
 10
6.792220385447393
 20
0.3583140372417404
 30
0.0
 11
4.845218546023261
 21
0.3583140372417404
 31
0.0
  0
LINE
  5
E0C2
330
E09F
100
AcDbEntity
  8
0
  6
HIDDEN
 48
0.1
100
AcDbLine
 10
6.792220385447393
 20
2.993858175201978
 30
0.0
 11
6.792220385447393
 21
0.3583140372417404
 31
0.0
  0
LINE
  5
E0C3
330
E09F
100
AcDbEntity
  8
0
  6
HIDDEN
 48
5.0
100
AcDbLine
 10
6.792220385447393
 20
2.993858175201978
 30
0.0
 11
6.772532785447396
 21
2.993858175201978
 31
0.0
  0
LINE
  5
E0C4
330
E09F
100
AcDbEntity
  8
0
  6
HIDDEN
 48
0.05
100
AcDbLine
 10
6.68984953327498
 20
2.996452437241742
 30
0.0
 11
5.729089985447387
 21
2.996452437241742
 31
0.0
  0
ARC
  5
E0C5
330
E09F
100
AcDbEntity
  8
0
  6
HIDDEN
 48
0.1
100
AcDbCircle
 10
8.801754760926172
 20
-0.6668461783533175
 30
0.0
 40
1.739594793843663
100
AcDbArc
 50
22.54035413398736
 51
126.6712020713367
  0
ARC
  5
E0C6
330
E09F
100
AcDbEntity
  8
0
  6
HIDDEN
 48
0.1
100
AcDbCircle
 10
6.883373748159982
 20
2.270587539128065
 30
0.0
 40
1.775291549979337
100
AcDbArc
 50
267.0568211590594
 51
299.6952813160647
  0
SPLINE
  5
E0C7
330
E09F
100
AcDbEntity
  8
0
  6
HIDDEN
 48
0.1
100
AcDbSpline
210
0.0
220
0.0
230
1.0
 70
     8
 71
     3
 72
    38
 73
    34
 74
     0
 42
0.0000000001
 43
0.0000000001
 40
0.0093689485947718
 40
0.0093689485947718
 40
0.0093689485947718
 40
0.0093689485947718
 40
0.3973794685434135
 40
0.5082228716513196
 40
0.6092119940507872
 40
0.7047588418300234
 40
0.798701275607903
 40
0.8927560111377362
 40
0.9864726373749576
 40
1.07941095490823
 40
1.172175814988148
 40
1.267206687493155
 40
1.368975344423821
 40
1.482019654267598
 40
1.609619025793599
 40
1.751488481534916
 40
1.906025867515333
 40
2.073610057072957
 40
2.258818443134986
 40
2.465356596199717
 40
2.684886769740489
 40
2.90324810276256
 40
3.117490124184316
 40
3.331170247824092
 40
3.552158913391858
 40
3.789518004037376
 40
4.05215714472236
 40
4.350484782965096
 40
4.694716222643293
 40
5.092557476188858
 40
5.528183156544126
 40
5.972338560899153
 40
7.920123254719101
 40
7.920123254719101
 40
7.920123254719101
 40
7.920123254719101
 10
6.792220385445517
 20
2.821528038309502
 30
0.0
 10
6.910286995635431
 20
2.874324117145299
 30
0.0
 10
7.058334124865609
 20
2.950399083298492
 30
0.0
 10
7.241571116340935
 20
3.030460999592399
 30
0.0
 10
7.335142680219007
 20
3.072199019596361
 30
0.0
 10
7.423656092526812
 20
3.111451106028241
 30
0.0
 10
7.510069869861979
 20
3.149736644869747
 30
0.0
 10
7.595791054446181
 20
3.18807194164033
 30
0.0
 10
7.681471413505192
 20
3.225699954554087
 30
0.0
 10
7.768040935522122
 20
3.260118018093727
 30
0.0
 10
7.856077586808652
 20
3.291885513080714
 30
0.0
 10
7.947910016790331
 20
3.321663331353818
 30
0.0
 10
8.047223101470876
 20
3.350096469403879
 30
0.0
 10
8.158081272122871
 20
3.377383173401227
 30
0.0
 10
8.283109271523045
 20
3.402610335179559
 30
0.0
 10
8.422875605607657
 20
3.423987335131293
 30
0.0
 10
8.576833930077867
 20
3.439539247483047
 30
0.0
 10
8.74589568383979
 20
3.446653201138047
 30
0.0
 10
8.932396437960534
 20
3.443870321032605
 30
0.0
 10
9.135859508052362
 20
3.431499689242798
 30
0.0
 10
9.349375129985958
 20
3.40695386606346
 30
0.0
 10
9.563777349634364
 20
3.370485180103564
 30
0.0
 10
9.774016407109968
 20
3.323025346077216
 30
0.0
 10
9.982285505890558
 20
3.264246873336304
 30
0.0
 10
10.19438688925027
 20
3.191837522041161
 30
0.0
 10
10.41718831337678
 20
3.101371514633942
 30
0.0
 10
10.65724031313377
 20
2.986099277380645
 30
0.0
 10
10.91976015414178
 20
2.836780692103729
 30
0.0
 10
11.20685854237695
 20
2.64153705765694
 30
0.0
 10
11.51059148351157
 20
2.391685238920263
 30
0.0
 10
11.80968046579568
 20
2.087802183622734
 30
0.0
 10
12.40137458903038
 20
1.348878694083278
 30
0.0
 10
12.64806008175006
 20
0.5693981197825338
 30
0.0
 10
12.96031566429224
 20
-0.0000002827582648
 30
0.0
  0
LINE
  5
E0C8
330
E09F
100
AcDbEntity
  8
0
  6
HIDDEN
 48
5.0
100
AcDbLine
 10
6.693887298116266
 20
2.996205231569717
 30
0.0
 11
6.689844852611059
 21
2.996452438068615
 31
0.0
  0
SPLINE
  5
E0C9
330
E09F
100
AcDbEntity
  8
0
  6
HIDDEN
 48
5.0
100
AcDbSpline
210
0.0
220
0.0
230
1.0
 70
     8
 71
     3
 72
    12
 73
     8
 74
     6
 42
0.0000000001
 43
0.0000000001
 44
0.0000000001
 12
-1.0
 22
0.0
 32
0.0
 13
-0.9981724719607075
 23
0.0604294317352946
 33
0.0
 40
0.0
 40
0.0
 40
0.0
 40
0.0
 40
0.0253780018187017
 40
0.0484999575953482
 40
0.0668634877775871
 40
0.0786568877127059
 40
0.0787963782749903
 40
0.0787963782749903
 40
0.0787963782749903
 40
0.0787963782749903
 10
6.772532785447396
 20
2.993858175201978
 30
0.0
 10
6.764073451507829
 20
2.993858175201978
 30
0.0
 10
6.74790637083198
 20
2.994014379666102
 30
0.0
 10
6.725626141027685
 20
2.994638045793237
 30
0.0
 10
6.707883119918635
 20
2.995418006100736
 30
0.0
 10
6.697799156946072
 20
2.995968471872016
 30
0.0
 10
6.693828791940628
 20
2.996208770829634
 30
0.0
 10
6.693782380060838
 20
2.996211580608104
 30
0.0
 11
6.772532785447396
 21
2.993858175201978
 31
0.0
 11
6.747155962064255
 21
2.994102738672069
 31
0.0
 11
6.724043092303276
 21
2.994750882444094
 31
0.0
 11
6.705697117657479
 21
2.995553662021421
 31
0.0
 11
6.693921615989211
 21
2.996203156047783
 31
0.0
 11
6.693782380060838
 21
2.996211580608104
 31
0.0
  0
LINE
  5
E0CA
330
E09F
100
AcDbEntity
  8
0
  6
HIDDEN
 48
5.0
100
AcDbLine
 10
6.693782380060838
 20
2.996211580608104
 30
0.0
 11
6.689844852611059
 21
2.996452438068615
 31
0.0
  0
LINE
  5
E0CB
330
E09F
100
AcDbEntity
  8
0
  6
HIDDEN
 48
5.0
100
AcDbLine
 10
4.845218546023261
 20
0.3583140372417404
 30
0.0
 11
4.845218546023261
 21
-0.0000002827582648
 31
0.0
  0
ENDBLK
  5
E0CF
330
E09F
100
AcDbEntity
  8
0
100
AcDbBlockEnd
  0
BLOCK
  5
E171
330
E166
100
AcDbEntity
  8
0
100
AcDbBlockBegin
  2
*D9
 70
     1
 10
0.0
 20
0.0
 30
0.0
  3
*D9
  1

  0
LINE
  5
E649
330
E166
100
AcDbEntity
  8
0
100
AcDbLine
 10
197.340702990733
 20
37.4977369211947
 30
0.0
 11
197.340702990733
 21
33.35378983262172
 31
0.0
  0
LINE
  5
E64A
330
E166
100
AcDbEntity
  8
0
100
AcDbLine
 10
209.840702990733
 20
35.77789278314322
 30
0.0
 11
209.840702990733
 21
33.35378983262172
 31
0.0
  0
LINE
  5
E64B
330
E166
100
AcDbEntity
  8
0
 62
     0
100
AcDbLine
 10
198.215702990733
 20
33.41628983262172
 30
0.0
 11
200.1627510807739
 21
33.41628983262172
 31
0.0
  0
LINE
  5
E64C
330
E166
100
AcDbEntity
  8
0
 62
     0
100
AcDbLine
 10
208.965702990733
 20
33.41628983262172
 30
0.0
 11
207.0186549006921
 21
33.41628983262172
 31
0.0
  0
SOLID
  5
E64D
330
E166
100
AcDbEntity
  8
0
 62
     0
100
AcDbTrace
 10
198.215702990733
 20
33.56212316595505
 30
0.0
 11
198.215702990733
 21
33.27045649928838
 31
0.0
 12
197.340702990733
 22
33.41628983262172
 32
0.0
 13
197.340702990733
 23
33.41628983262172
 33
0.0
  0
SOLID
  5
E64E
330
E166
100
AcDbEntity
  8
0
 62
     0
100
AcDbTrace
 10
208.965702990733
 20
33.56212316595505
 30
0.0
 11
208.965702990733
 21
33.27045649928838
 31
0.0
 12
209.840702990733
 22
33.41628983262172
 32
0.0
 13
209.840702990733
 23
33.41628983262172
 33
0.0
  0
MTEXT
  5
E64F
330
E166
100
AcDbEntity
  8
0
 62
     0
100
AcDbMText
 10
203.590702990733
 20
33.41628983262172
 30
0.0
 40
0.875
 41
0.0
 71
     5
 72
     1
  1
\A1;12" [305mm]
 73
     1
 44
1.0
  0
POINT
  5
E650
330
E166
100
AcDbEntity
  8
Defpoints
 62
     0
100
AcDbPoint
 10
197.340702990733
 20
37.5602369211947
 30
0.0
  0
POINT
  5
E651
330
E166
100
AcDbEntity
  8
Defpoints
 62
     0
100
AcDbPoint
 10
209.840702990733
 20
35.84039278314322
 30
0.0
  0
POINT
  5
E652
330
E166
100
AcDbEntity
  8
Defpoints
 62
     0
100
AcDbPoint
 10
209.840702990733
 20
33.41628983262172
 30
0.0
  0
ENDBLK
  5
E172
330
E166
100
AcDbEntity
  8
0
100
AcDbBlockEnd
  0
BLOCK
  5
E18B
330
E180
100
AcDbEntity
  8
0
100
AcDbBlockBegin
  2
*D10
 70
     1
 10
0.0
 20
0.0
 30
0.0
  3
*D10
  1

  0
LINE
  5
E222
330
E180
100
AcDbEntity
  8
0
100
AcDbLine
 10
197.340702990733
 20
35.65455668660979
 30
0.0
 11
197.340702990733
 21
35.6080160084457
 31
0.0
  0
LINE
  5
E223
330
E180
100
AcDbEntity
  8
0
100
AcDbLine
 10
207.840702990733
 20
36.24429847991905
 30
0.0
 11
207.840702990733
 21
35.6080160084457
 31
0.0
  0
LINE
  5
E224
330
E180
100
AcDbEntity
  8
0
 62
     0
100
AcDbLine
 10
198.215702990733
 20
35.6705160084457
 30
0.0
 11
199.1627510807739
 21
35.6705160084457
 31
0.0
  0
LINE
  5
E225
330
E180
100
AcDbEntity
  8
0
 62
     0
100
AcDbLine
 10
206.965702990733
 20
35.6705160084457
 30
0.0
 11
206.0186549006921
 21
35.6705160084457
 31
0.0
  0
SOLID
  5
E226
330
E180
100
AcDbEntity
  8
0
 62
     0
100
AcDbTrace
 10
198.215702990733
 20
35.81634934177904
 30
0.0
 11
198.215702990733
 21
35.52468267511237
 31
0.0
 12
197.340702990733
 22
35.6705160084457
 32
0.0
 13
197.340702990733
 23
35.6705160084457
 33
0.0
  0
SOLID
  5
E227
330
E180
100
AcDbEntity
  8
0
 62
     0
100
AcDbTrace
 10
206.965702990733
 20
35.81634934177904
 30
0.0
 11
206.965702990733
 21
35.52468267511237
 31
0.0
 12
207.840702990733
 22
35.6705160084457
 32
0.0
 13
207.840702990733
 23
35.6705160084457
 33
0.0
  0
MTEXT
  5
E228
330
E180
100
AcDbEntity
  8
0
 62
     0
100
AcDbMText
 10
202.590702990733
 20
35.6705160084457
 30
0.0
 40
0.875
 41
0.0
 71
     5
 72
     1
  1
\A1;10" [254mm]
 73
     1
 44
1.0
  0
POINT
  5
E229
330
E180
100
AcDbEntity
  8
Defpoints
 62
     0
100
AcDbPoint
 10
197.340702990733
 20
35.7170566866098
 30
0.0
  0
POINT
  5
E22A
330
E180
100
AcDbEntity
  8
Defpoints
 62
     0
100
AcDbPoint
 10
207.840702990733
 20
36.30679847991905
 30
0.0
  0
POINT
  5
E22B
330
E180
100
AcDbEntity
  8
Defpoints
 62
     0
100
AcDbPoint
 10
207.840702990733
 20
35.6705160084457
 30
0.0
  0
ENDBLK
  5
E18C
330
E180
100
AcDbEntity
  8
0
100
AcDbBlockEnd
  0
BLOCK
  5
E1A5
330
E19A
100
AcDbEntity
  8
0
100
AcDbBlockBegin
  2
*D11
 70
     1
 10
0.0
 20
0.0
 30
0.0
  3
*D11
  1

  0
LINE
  5
E781
330
E19A
100
AcDbEntity
  8
0
100
AcDbLine
 10
197.340702990733
 20
33.56748264988664
 30
0.0
 11
197.340702990733
 21
31.07644014696871
 31
0.0
  0
LINE
  5
E782
330
E19A
100
AcDbEntity
  8
0
100
AcDbLine
 10
211.840702990733
 20
35.83158913123361
 30
0.0
 11
211.840702990733
 21
31.07644014696871
 31
0.0
  0
LINE
  5
E783
330
E19A
100
AcDbEntity
  8
0
 62
     0
100
AcDbLine
 10
198.215702990733
 20
31.13894014696871
 30
0.0
 11
201.1627510807739
 21
31.13894014696871
 31
0.0
  0
LINE
  5
E784
330
E19A
100
AcDbEntity
  8
0
 62
     0
100
AcDbLine
 10
210.965702990733
 20
31.13894014696871
 30
0.0
 11
208.0186549006921
 21
31.13894014696871
 31
0.0
  0
SOLID
  5
E785
330
E19A
100
AcDbEntity
  8
0
 62
     0
100
AcDbTrace
 10
198.215702990733
 20
31.28477348030204
 30
0.0
 11
198.215702990733
 21
30.99310681363538
 31
0.0
 12
197.340702990733
 22
31.13894014696871
 32
0.0
 13
197.340702990733
 23
31.13894014696871
 33
0.0
  0
SOLID
  5
E786
330
E19A
100
AcDbEntity
  8
0
 62
     0
100
AcDbTrace
 10
210.965702990733
 20
31.28477348030204
 30
0.0
 11
210.965702990733
 21
30.99310681363538
 31
0.0
 12
211.840702990733
 22
31.13894014696871
 32
0.0
 13
211.840702990733
 23
31.13894014696871
 33
0.0
  0
MTEXT
  5
E787
330
E19A
100
AcDbEntity
  8
0
 62
     0
100
AcDbMText
 10
204.590702990733
 20
31.13894014696871
 30
0.0
 40
0.875
 41
0.0
 71
     5
 72
     1
  1
\A1;14" [356mm]
 73
     1
 44
1.0
  0
POINT
  5
E788
330
E19A
100
AcDbEntity
  8
Defpoints
 62
     0
100
AcDbPoint
 10
197.340702990733
 20
33.62998264988664
 30
0.0
  0
POINT
  5
E789
330
E19A
100
AcDbEntity
  8
Defpoints
 62
     0
100
AcDbPoint
 10
211.840702990733
 20
35.89408913123361
 30
0.0
  0
POINT
  5
E78A
330
E19A
100
AcDbEntity
  8
Defpoints
 62
     0
100
AcDbPoint
 10
211.840702990733
 20
31.13894014696871
 30
0.0
  0
ENDBLK
  5
E1A6
330
E19A
100
AcDbEntity
  8
0
100
AcDbBlockEnd
  0
BLOCK
  5
E471
330
E466
100
AcDbEntity
  8
0
100
AcDbBlockBegin
  2
*D13
 70
     1
 10
0.0
 20
0.0
 30
0.0
  3
*D13
  1

  0
LINE
  5
E91F
330
E466
100
AcDbEntity
  8
0
100
AcDbLine
 10
240.4738950877577
 20
66.18637405798532
 30
0.0
 11
233.9589641244266
 21
66.18637405798532
 31
0.0
  0
LINE
  5
E920
330
E466
100
AcDbEntity
  8
0
100
AcDbLine
 10
248.4840822186205
 20
37.5602369211949
 30
0.0
 11
233.9589641244265
 21
37.5602369211949
 31
0.0
  0
LINE
  5
E921
330
E466
100
AcDbEntity
  8
0
 62
     0
100
AcDbLine
 10
234.4589641244266
 20
65.31137405798531
 30
0.0
 11
234.4589641244265
 21
53.65039202345725
 31
0.0
  0
LINE
  5
E922
330
E466
100
AcDbEntity
  8
0
 62
     0
100
AcDbLine
 10
234.4589641244265
 20
38.4352369211949
 30
0.0
 11
234.4589641244265
 21
51.517547548696
 31
0.0
  0
SOLID
  5
E923
330
E466
100
AcDbEntity
  8
0
 62
     0
100
AcDbTrace
 10
234.3131307910932
 20
65.31137405798531
 30
0.0
 11
234.6047974577599
 21
65.31137405798531
 31
0.0
 12
234.4589641244266
 22
66.18637405798532
 32
0.0
 13
234.4589641244266
 23
66.18637405798532
 33
0.0
  0
SOLID
  5
E924
330
E466
100
AcDbEntity
  8
0
 62
     0
100
AcDbTrace
 10
234.3131307910932
 20
38.4352369211949
 30
0.0
 11
234.6047974577599
 21
38.4352369211949
 31
0.0
 12
234.4589641244265
 22
37.5602369211949
 32
0.0
 13
234.4589641244265
 23
37.5602369211949
 33
0.0
  0
MTEXT
  5
E925
330
E466
100
AcDbEntity
  8
0
 62
     0
100
AcDbMText
 10
234.4589641244265
 20
52.58396978607666
 30
0.0
 40
0.875
 41
0.0
 71
     5
 72
     1
  1
\A1;28 5/8" [727mm]
 73
     1
 44
1.0
  0
POINT
  5
E926
330
E466
100
AcDbEntity
  8
Defpoints
 62
     0
100
AcDbPoint
 10
240.5363950877577
 20
66.18637405798532
 30
0.0
  0
POINT
  5
E927
330
E466
100
AcDbEntity
  8
Defpoints
 62
     0
100
AcDbPoint
 10
248.5465822186206
 20
37.5602369211949
 30
0.0
  0
POINT
  5
E928
330
E466
100
AcDbEntity
  8
Defpoints
 62
     0
100
AcDbPoint
 10
234.4589641244265
 20
37.5602369211949
 30
0.0
  0
ENDBLK
  5
E472
330
E466
100
AcDbEntity
  8
0
100
AcDbBlockEnd
  0
BLOCK
  5
E4E4
330
E4D9
100
AcDbEntity
  8
0
100
AcDbBlockBegin
  2
*D14
 70
     1
 10
0.0
 20
0.0
 30
0.0
  3
*D14
  1

  0
LINE
  5
E536
330
E4D9
100
AcDbEntity
  8
0
100
AcDbLine
 10
240.5465822186206
 20
39.79179427668066
 30
0.0
 11
240.5465822186206
 21
32.11261572435308
 31
0.0
  0
LINE
  5
E537
330
E4D9
100
AcDbEntity
  8
0
100
AcDbLine
 10
248.5465822186206
 20
37.4977369211947
 30
0.0
 11
248.5465822186206
 21
32.11261572435308
 31
0.0
  0
LINE
  5
E538
330
E4D9
100
AcDbEntity
  8
0
 62
     0
100
AcDbLine
 10
239.6715822186206
 20
32.61261572435308
 30
0.0
 11
238.7965822186206
 21
32.61261572435308
 31
0.0
  0
LINE
  5
E539
330
E4D9
100
AcDbEntity
  8
0
 62
     0
100
AcDbLine
 10
249.4215822186205
 20
32.61261572435308
 30
0.0
 11
250.2965822186205
 21
32.61261572435308
 31
0.0
  0
SOLID
  5
E53A
330
E4D9
100
AcDbEntity
  8
0
 62
     0
100
AcDbTrace
 10
239.6715822186206
 20
32.75844905768642
 30
0.0
 11
239.6715822186206
 21
32.46678239101974
 31
0.0
 12
240.5465822186206
 22
32.61261572435308
 32
0.0
 13
240.5465822186206
 23
32.61261572435308
 33
0.0
  0
SOLID
  5
E53B
330
E4D9
100
AcDbEntity
  8
0
 62
     0
100
AcDbTrace
 10
249.4215822186205
 20
32.75844905768642
 30
0.0
 11
249.4215822186205
 21
32.46678239101974
 31
0.0
 12
248.5465822186206
 22
32.61261572435308
 32
0.0
 13
248.5465822186206
 23
32.61261572435308
 33
0.0
  0
MTEXT
  5
E53C
330
E4D9
100
AcDbEntity
  8
0
 62
     0
100
AcDbMText
 10
244.5465822186206
 20
32.61261572435308
 30
0.0
 40
0.875
 41
0.0
 71
     5
 72
     1
  1
\A1;8" [203mm]
 73
     1
 44
1.0
  0
POINT
  5
E53D
330
E4D9
100
AcDbEntity
  8
Defpoints
 62
     0
100
AcDbPoint
 10
240.5465822186206
 20
39.85429427668066
 30
0.0
  0
POINT
  5
E53E
330
E4D9
100
AcDbEntity
  8
Defpoints
 62
     0
100
AcDbPoint
 10
248.5465822186206
 20
37.5602369211947
 30
0.0
  0
POINT
  5
E53F
330
E4D9
100
AcDbEntity
  8
Defpoints
 62
     0
100
AcDbPoint
 10
248.5465822186206
 20
32.61261572435308
 30
0.0
  0
ENDBLK
  5
E4E5
330
E4D9
100
AcDbEntity
  8
0
100
AcDbBlockEnd
  0
BLOCK
  5
E4FF
330
E4F3
100
AcDbEntity
  8
0
100
AcDbBlockBegin
  2
*D15
 70
     1
 10
0.0
 20
0.0
 30
0.0
  3
*D15
  1

  0
LINE
  5
E7C8
330
E4F3
100
AcDbEntity
  8
0
100
AcDbLine
 10
240.4840822186205
 20
37.5602369211949
 30
0.0
 11
238.0910362034301
 21
37.56023692119491
 31
0.0
  0
LINE
  5
E7C9
330
E4F3
100
AcDbEntity
  8
0
100
AcDbLine
 10
239.4840822186206
 20
43.53119610692757
 30
0.0
 11
238.0910362034301
 21
43.53119610692757
 31
0.0
  0
LINE
  5
E7CA
330
E4F3
100
AcDbEntity
  8
0
 62
     0
100
AcDbLine
 10
238.5910362034301
 20
38.43523692119491
 30
0.0
 11
238.5910362034301
 21
39.35996446767653
 31
0.0
  0
LINE
  5
E7CB
330
E4F3
100
AcDbEntity
  8
0
 62
     0
100
AcDbLine
 10
238.5910362034301
 20
42.65619610692757
 30
0.0
 11
238.5910362034301
 21
41.48146856044596
 31
0.0
  0
SOLID
  5
E7CC
330
E4F3
100
AcDbEntity
  8
0
 62
     0
100
AcDbTrace
 10
238.4452028700968
 20
38.43523692119491
 30
0.0
 11
238.7368695367634
 21
38.43523692119491
 31
0.0
 12
238.5910362034301
 22
37.56023692119491
 32
0.0
 13
238.5910362034301
 23
37.56023692119491
 33
0.0
  0
SOLID
  5
E7CD
330
E4F3
100
AcDbEntity
  8
0
 62
     0
100
AcDbTrace
 10
238.4452028700968
 20
42.65619610692757
 30
0.0
 11
238.7368695367634
 21
42.65619610692757
 31
0.0
 12
238.5910362034301
 22
43.53119610692757
 32
0.0
 13
238.5910362034301
 23
43.53119610692757
 33
0.0
  0
MTEXT
  5
E7CE
330
E4F3
100
AcDbEntity
  8
0
 62
     0
100
AcDbMText
 10
238.5910362034301
 20
40.42071651406128
 30
0.0
 40
0.875
 41
0.0
 71
     5
 72
     1
  1
\A1;6" [152mm]
 73
     1
 44
1.0
  0
POINT
  5
E7CF
330
E4F3
100
AcDbEntity
  8
Defpoints
 62
     0
100
AcDbPoint
 10
240.5465822186206
 20
37.5602369211949
 30
0.0
  0
POINT
  5
E7D0
330
E4F3
100
AcDbEntity
  8
Defpoints
 62
     0
100
AcDbPoint
 10
239.5465822186205
 20
43.53119610692757
 30
0.0
  0
POINT
  5
E7D1
330
E4F3
100
AcDbEntity
  8
Defpoints
 62
     0
100
AcDbPoint
 10
238.5910362034301
 20
43.53119610692757
 30
0.0
  0
ENDBLK
  5
E500
330
E4F3
100
AcDbEntity
  8
0
100
AcDbBlockEnd
  0
BLOCK
  5
E560
330
E555
100
AcDbEntity
  8
0
100
AcDbBlockBegin
  2
*D16
 70
     1
 10
0.0
 20
0.0
 30
0.0
  3
*D16
  1

  0
LINE
  5
E5D1
330
E555
100
AcDbEntity
  8
0
100
AcDbLine
 10
198.0910609915843
 20
55.96350168686203
 30
0.0
 11
198.0910609915843
 21
68.33548427331584
 31
0.0
  0
LINE
  5
E5D2
330
E555
100
AcDbEntity
  8
0
100
AcDbLine
 10
197.340702990733
 20
67.50354519785833
 30
0.0
 11
197.340702990733
 21
68.33548427331584
 31
0.0
  0
LINE
  5
E5D3
330
E555
100
AcDbEntity
  8
0
 62
     0
100
AcDbLine
 10
196.465702990733
 20
68.27298427331584
 30
0.0
 11
195.590702990733
 21
68.27298427331584
 31
0.0
  0
LINE
  5
E5D4
330
E555
100
AcDbEntity
  8
0
 62
     0
100
AcDbLine
 10
198.9660609915843
 20
68.27298427331584
 30
0.0
 11
199.8410609915843
 21
68.27298427331584
 31
0.0
  0
SOLID
  5
E5D5
330
E555
100
AcDbEntity
  8
0
 62
     0
100
AcDbTrace
 10
196.465702990733
 20
68.41881760664917
 30
0.0
 11
196.465702990733
 21
68.12715093998251
 31
0.0
 12
197.340702990733
 22
68.27298427331584
 32
0.0
 13
197.340702990733
 23
68.27298427331584
 33
0.0
  0
SOLID
  5
E5D6
330
E555
100
AcDbEntity
  8
0
 62
     0
100
AcDbTrace
 10
198.9660609915843
 20
68.41881760664917
 30
0.0
 11
198.9660609915843
 21
68.12715093998251
 31
0.0
 12
198.0910609915843
 22
68.27298427331584
 32
0.0
 13
198.0910609915843
 23
68.27298427331584
 33
0.0
  0
MTEXT
  5
E5D7
330
E555
100
AcDbEntity
  8
0
 62
     0
100
AcDbMText
 10
203.5497922330577
 20
68.27298427331584
 30
0.0
 40
0.875
 41
0.0
 71
     5
 72
     1
  1
\A1;3/4" [19mm]
 73
     1
 44
1.0
  0
POINT
  5
E5D8
330
E555
100
AcDbEntity
  8
Defpoints
 62
     0
100
AcDbPoint
 10
198.0910609915843
 20
55.90100168686203
 30
0.0
  0
POINT
  5
E5D9
330
E555
100
AcDbEntity
  8
Defpoints
 62
     0
100
AcDbPoint
 10
197.340702990733
 20
67.44104519785833
 30
0.0
  0
POINT
  5
E5DA
330
E555
100
AcDbEntity
  8
Defpoints
 62
     0
100
AcDbPoint
 10
197.340702990733
 20
68.27298427331584
 30
0.0
  0
ENDBLK
  5
E561
330
E555
100
AcDbEntity
  8
0
100
AcDbBlockEnd
  0
BLOCK
  5
E59B
330
E590
100
AcDbEntity
  8
0
100
AcDbBlockBegin
  2
*D17
 70
     1
 10
0.0
 20
0.0
 30
0.0
  3
*D17
  1

  0
LINE
  5
E603
330
E590
100
AcDbEntity
  8
0
100
AcDbLine
 10
198.0910609915843
 20
78.29313032637429
 30
0.0
 11
198.0910609915843
 21
72.81162576174131
 31
0.0
  0
LINE
  5
E604
330
E590
100
AcDbEntity
  8
0
100
AcDbLine
 10
226.431702990733
 20
82.15779852309891
 30
0.0
 11
226.431702990733
 21
72.81162576174131
 31
0.0
  0
LINE
  5
E605
330
E590
100
AcDbEntity
  8
0
 62
     0
100
AcDbLine
 10
198.9660609915843
 20
72.87412576174131
 30
0.0
 11
206.9634918534863
 21
72.87412576174131
 31
0.0
  0
LINE
  5
E606
330
E590
100
AcDbEntity
  8
0
 62
     0
100
AcDbLine
 10
225.556702990733
 20
72.87412576174131
 30
0.0
 11
217.4553915806349
 21
72.87412576174131
 31
0.0
  0
SOLID
  5
E607
330
E590
100
AcDbEntity
  8
0
 62
     0
100
AcDbTrace
 10
198.9660609915843
 20
73.01995909507464
 30
0.0
 11
198.9660609915843
 21
72.72829242840798
 31
0.0
 12
198.0910609915843
 22
72.87412576174131
 32
0.0
 13
198.0910609915843
 23
72.87412576174131
 33
0.0
  0
SOLID
  5
E608
330
E590
100
AcDbEntity
  8
0
 62
     0
100
AcDbTrace
 10
225.556702990733
 20
73.01995909507464
 30
0.0
 11
225.556702990733
 21
72.72829242840798
 31
0.0
 12
226.431702990733
 22
72.87412576174131
 32
0.0
 13
226.431702990733
 23
72.87412576174131
 33
0.0
  0
MTEXT
  5
E609
330
E590
100
AcDbEntity
  8
0
 62
     0
100
AcDbMText
 10
212.2094417170606
 20
72.87412576174131
 30
0.0
 40
0.875
 41
0.0
 71
     5
 72
     1
  1
\A1;28 5/16" [720mm]
 73
     1
 44
1.0
  0
POINT
  5
E60A
330
E590
100
AcDbEntity
  8
Defpoints
 62
     0
100
AcDbPoint
 10
198.0910609915843
 20
78.3556303263743
 30
0.0
  0
POINT
  5
E60B
330
E590
100
AcDbEntity
  8
Defpoints
 62
     0
100
AcDbPoint
 10
226.431702990733
 20
82.22029852309891
 30
0.0
  0
POINT
  5
E60C
330
E590
100
AcDbEntity
  8
Defpoints
 62
     0
100
AcDbPoint
 10
226.431702990733
 20
72.87412576174131
 30
0.0
  0
ENDBLK
  5
E59C
330
E590
100
AcDbEntity
  8
0
100
AcDbBlockEnd
  0
BLOCK
  5
E660
330
E654
100
AcDbEntity
  8
0
100
AcDbBlockBegin
  2
*D18
 70
     1
 10
0.0
 20
0.0
 30
0.0
  3
*D18
  1

  0
LINE
  5
E683
330
E654
100
AcDbEntity
  8
0
100
AcDbLine
 10
207.868827990733
 20
86.95492746803115
 30
0.0
 11
205.9384318639073
 21
86.95492746803115
 31
0.0
  0
LINE
  5
E684
330
E654
100
AcDbEntity
  8
0
100
AcDbLine
 10
207.8690173969667
 20
81.43190740367357
 30
0.0
 11
205.9384318639073
 21
81.43190740367357
 31
0.0
  0
LINE
  5
E685
330
E654
100
AcDbEntity
  8
0
 62
     0
100
AcDbLine
 10
206.0009318639073
 20
82.30690740367357
 30
0.0
 11
206.0009318639073
 21
86.07992746803114
 31
0.0
  0
LINE
  5
E686
330
E654
100
AcDbEntity
  8
0
 62
     0
100
AcDbLine
 10
206.0009318639073
 20
86.95492746803115
 30
0.0
 11
206.0009318639073
 21
93.27356144389304
 31
0.0
  0
LINE
  5
E687
330
E654
100
AcDbEntity
  8
0
 62
     0
100
AcDbLine
 10
206.0009318639073
 20
93.27356144389304
 30
0.0
 11
206.8759318639073
 21
93.27356144389304
 31
0.0
  0
SOLID
  5
E688
330
E654
100
AcDbEntity
  8
0
 62
     0
100
AcDbTrace
 10
205.8550985305739
 20
82.30690740367357
 30
0.0
 11
206.1467651972406
 21
82.30690740367357
 31
0.0
 12
206.0009318639073
 22
81.43190740367357
 32
0.0
 13
206.0009318639073
 23
81.43190740367357
 33
0.0
  0
SOLID
  5
E689
330
E654
100
AcDbEntity
  8
0
 62
     0
100
AcDbTrace
 10
205.8550985305739
 20
86.07992746803114
 30
0.0
 11
206.1467651972406
 21
86.07992746803114
 31
0.0
 12
206.0009318639073
 22
86.95492746803115
 32
0.0
 13
206.0009318639073
 23
86.95492746803115
 33
0.0
  0
MTEXT
  5
E68A
330
E654
100
AcDbEntity
  8
0
 62
     0
100
AcDbMText
 10
211.4345948925567
 20
93.27356144389307
 30
0.0
 40
0.875
 41
0.0
 71
     5
 72
     1
  1
\A1;5 1/2" [140mm]
 73
     1
 44
1.0
  0
POINT
  5
E68B
330
E654
100
AcDbEntity
  8
Defpoints
 62
     0
100
AcDbPoint
 10
207.931327990733
 20
86.95492746803115
 30
0.0
  0
POINT
  5
E68C
330
E654
100
AcDbEntity
  8
Defpoints
 62
     0
100
AcDbPoint
 10
207.9315173969667
 20
81.43190740367357
 30
0.0
  0
POINT
  5
E68D
330
E654
100
AcDbEntity
  8
Defpoints
 62
     0
100
AcDbPoint
 10
206.0009318639073
 20
81.43190740367357
 30
0.0
  0
ENDBLK
  5
E661
330
E654
100
AcDbEntity
  8
0
100
AcDbBlockEnd
  0
BLOCK
  5
E69A
330
E68F
100
AcDbEntity
  8
0
100
AcDbBlockBegin
  2
*D19
 70
     1
 10
0.0
 20
0.0
 30
0.0
  3
*D19
  1

  0
LINE
  5
E6BC
330
E68F
100
AcDbEntity
  8
0
100
AcDbLine
 10
240.2813852211054
 20
55.84082761957733
 30
0.0
 11
240.2813852211054
 21
69.538774446209
 31
0.0
  0
LINE
  5
E6BD
330
E68F
100
AcDbEntity
  8
0
100
AcDbLine
 10
256.8035659977665
 20
55.65819020545678
 30
0.0
 11
256.8035659977665
 21
69.538774446209
 31
0.0
  0
LINE
  5
E6BE
330
E68F
100
AcDbEntity
  8
0
 62
     0
100
AcDbLine
 10
241.1563852211054
 20
69.038774446209
 30
0.0
 11
243.6971805412562
 21
69.038774446209
 31
0.0
  0
LINE
  5
E6BF
330
E68F
100
AcDbEntity
  8
0
 62
     0
100
AcDbLine
 10
255.9285659977665
 20
69.038774446209
 30
0.0
 11
253.4119656708605
 21
69.038774446209
 31
0.0
  0
SOLID
  5
E6C0
330
E68F
100
AcDbEntity
  8
0
 62
     0
100
AcDbTrace
 10
241.1563852211054
 20
69.18460777954233
 30
0.0
 11
241.1563852211054
 21
68.89294111287568
 31
0.0
 12
240.2813852211054
 22
69.038774446209
 32
0.0
 13
240.2813852211054
 23
69.038774446209
 33
0.0
  0
SOLID
  5
E6C1
330
E68F
100
AcDbEntity
  8
0
 62
     0
100
AcDbTrace
 10
255.9285659977665
 20
69.18460777954233
 30
0.0
 11
255.9285659977665
 21
68.89294111287568
 31
0.0
 12
256.8035659977665
 22
69.038774446209
 32
0.0
 13
256.8035659977665
 23
69.038774446209
 33
0.0
  0
MTEXT
  5
E6C2
330
E68F
100
AcDbEntity
  8
0
 62
     0
100
AcDbMText
 10
248.5545731060583
 20
69.038774446209
 30
0.0
 40
0.875
 41
0.0
 71
     5
 72
     1
  1
\A1;16 1/2" [420mm]
 73
     1
 44
1.0
  0
POINT
  5
E6C3
330
E68F
100
AcDbEntity
  8
Defpoints
 62
     0
100
AcDbPoint
 10
240.2813852211054
 20
55.77832761957733
 30
0.0
  0
POINT
  5
E6C4
330
E68F
100
AcDbEntity
  8
Defpoints
 62
     0
100
AcDbPoint
 10
256.8035659977665
 20
55.59569020545677
 30
0.0
  0
POINT
  5
E6C5
330
E68F
100
AcDbEntity
  8
Defpoints
 62
     0
100
AcDbPoint
 10
256.8035659977665
 20
69.038774446209
 30
0.0
  0
ENDBLK
  5
E69B
330
E68F
100
AcDbEntity
  8
0
100
AcDbBlockEnd
  0
BLOCK
  5
E8DB
330
E8D0
100
AcDbEntity
  8
0
100
AcDbBlockBegin
  2
*D20
 70
     1
 10
0.0
 20
0.0
 30
0.0
  3
*D20
  1

  0
LINE
  5
E8E9
330
E8D0
100
AcDbEntity
  8
0
100
AcDbLine
 10
242.6426702631648
 20
37.62283529307868
 30
0.0
 11
242.6426702631648
 21
34.57071723581157
 31
0.0
  0
LINE
  5
E8EA
330
E8D0
100
AcDbEntity
  8
0
100
AcDbLine
 10
254.450996261499
 20
37.62283529307868
 30
0.0
 11
254.450996261499
 21
34.57071723581157
 31
0.0
  0
LINE
  5
E8EB
330
E8D0
100
AcDbEntity
  8
0
 62
     0
100
AcDbLine
 10
241.7676702631648
 20
35.07071723581157
 30
0.0
 11
240.8926702631648
 21
35.07071723581157
 31
0.0
  0
LINE
  5
E8EC
330
E8D0
100
AcDbEntity
  8
0
 62
     0
100
AcDbLine
 10
255.325996261499
 20
35.07071723581157
 30
0.0
 11
256.200996261499
 21
35.07071723581157
 31
0.0
  0
SOLID
  5
E8ED
330
E8D0
100
AcDbEntity
  8
0
 62
     0
100
AcDbTrace
 10
241.7676702631648
 20
35.21655056914491
 30
0.0
 11
241.7676702631648
 21
34.92488390247824
 31
0.0
 12
242.6426702631648
 22
35.07071723581157
 32
0.0
 13
242.6426702631648
 23
35.07071723581157
 33
0.0
  0
SOLID
  5
E8EE
330
E8D0
100
AcDbEntity
  8
0
 62
     0
100
AcDbTrace
 10
255.325996261499
 20
35.21655056914491
 30
0.0
 11
255.325996261499
 21
34.92488390247824
 31
0.0
 12
254.450996261499
 22
35.07071723581157
 32
0.0
 13
254.450996261499
 23
35.07071723581157
 33
0.0
  0
MTEXT
  5
E8EF
330
E8D0
100
AcDbEntity
  8
0
 62
     0
100
AcDbMText
 10
248.5468332623319
 20
35.07071723581157
 30
0.0
 40
0.875
 41
0.0
 71
     5
 72
     1
  1
\A1;11 13/16" [300mm]
 73
     1
 44
1.0
  0
POINT
  5
E8F0
330
E8D0
100
AcDbEntity
  8
Defpoints
 62
     0
100
AcDbPoint
 10
242.6426702631648
 20
37.68533529307868
 30
0.0
  0
POINT
  5
E8F1
330
E8D0
100
AcDbEntity
  8
Defpoints
 62
     0
100
AcDbPoint
 10
254.450996261499
 20
37.68533529307868
 30
0.0
  0
POINT
  5
E8F2
330
E8D0
100
AcDbEntity
  8
Defpoints
 62
     0
100
AcDbPoint
 10
254.450996261499
 20
35.07071723581157
 30
0.0
  0
ENDBLK
  5
E8DC
330
E8D0
100
AcDbEntity
  8
0
100
AcDbBlockEnd
  0
ENDSEC
  0
SECTION
  2
ENTITIES
  0
LINE
  5
D5C0
330
1F
100
AcDbEntity
  8
PIC01
  6
Continuous
 62
     7
100
AcDbLine
 10
197.7984992326964
 20
56.93841258541183
 30
0.0
 11
197.8028200114995
 21
57.1669600131917
 31
0.0
  0
LINE
  5
D5C1
330
1F
100
AcDbEntity
  8
PIC01
  6
Continuous
 62
     7
100
AcDbLine
 10
197.9246283884703
 20
57.56058815673802
 30
0.0
 11
204.0294850270255
 21
57.56058815673802
 31
0.0
  0
LINE
  5
D5C2
330
1F
100
AcDbEntity
  8
PIC01
  6
Continuous
 62
     7
100
AcDbLine
 10
204.0380323613709
 20
56.79429909539982
 30
0.0
 11
204.0591212008109
 21
56.77321025595976
 31
0.0
  0
LINE
  5
D5C3
330
1F
100
AcDbEntity
  8
PIC01
  6
Continuous
 62
     7
100
AcDbLine
 10
197.805940927208
 20
57.33204072895813
 30
0.0
 11
197.8114976444494
 21
57.64482167006693
 31
0.0
  0
LINE
  5
D5C4
330
1F
100
AcDbEntity
  8
PIC01
  6
Continuous
 62
     7
100
AcDbLine
 10
204.0076273398514
 20
57.56058815673802
 30
0.0
 11
204.0610552683093
 21
56.74363698298197
 31
0.0
  0
ARC
  5
D5C5
330
1F
100
AcDbEntity
  8
PIC01
  6
Continuous
 62
     7
100
AcDbCircle
 10
220.9457702253047
 20
77.0397779657383
 30
0.0
 40
5.038399999999998
100
AcDbArc
 50
319.0355148194846
 51
40.9644851805154
  0
ARC
  5
D5C6
330
1F
100
AcDbEntity
  8
PIC01
  6
Continuous
 62
     7
100
AcDbCircle
 10
215.7499202253047
 20
69.85612171573828
 30
0.0
 40
14.17049999999999
100
AcDbArc
 50
68.74572397372848
 51
82.28885588623999
  0
ARC
  5
D5C7
330
1F
100
AcDbEntity
  8
PIC01
  6
Continuous
 62
     7
100
AcDbCircle
 10
217.3195326794816
 20
73.89148220264869
 30
0.0
 40
9.840625000000001
100
AcDbArc
 50
40.96448222295665
 51
68.74572558003809
  0
ARC
  5
D5C8
330
1F
100
AcDbEntity
  8
PIC01
  6
Continuous
 62
     7
100
AcDbCircle
 10
217.3195326794816
 20
80.1880737288279
 30
0.0
 40
9.840625000000001
100
AcDbArc
 50
291.2542744199624
 51
319.0355177770434
  0
ARC
  5
D5C9
330
1F
100
AcDbEntity
  8
PIC01
  6
Continuous
 62
     7
100
AcDbCircle
 10
215.7499202253047
 20
84.22343421573827
 30
0.0
 40
14.17050000000001
100
AcDbArc
 50
277.7111441137596
 51
291.2542760262715
  0
ARC
  5
D5CA
330
1F
100
AcDbEntity
  8
PIC01
  6
Continuous
 62
     7
100
AcDbCircle
 10
217.3195326794816
 20
80.1880737288279
 30
0.0
 40
8.148037499999999
100
AcDbArc
 50
291.2542744199624
 51
319.0355177770434
  0
ARC
  5
D5CB
330
1F
100
AcDbEntity
  8
PIC01
  6
Continuous
 62
     7
100
AcDbCircle
 10
215.7499202253047
 20
84.22343421573827
 30
0.0
 40
12.47791249999999
100
AcDbArc
 50
263.8875982413665
 51
291.2542760262715
  0
CIRCLE
  5
D5CC
330
1F
100
AcDbEntity
  8
PIC01
  6
Continuous
 62
     7
100
AcDbCircle
 10
207.4837952253048
 20
74.28440296573828
 30
0.0
 40
0.2755375
  0
CIRCLE
  5
D5CD
330
1F
100
AcDbEntity
  8
PIC01
  6
Continuous
 62
     7
100
AcDbCircle
 10
207.4837952253048
 20
79.79515296573831
 30
0.0
 40
0.2755375
  0
ARC
  5
D5CE
330
1F
100
AcDbEntity
  8
PIC01
  6
Continuous
 62
     7
100
AcDbCircle
 10
276.3681702253048
 20
77.0397779657383
 30
0.0
 40
78.72500000000001
100
AcDbArc
 50
174.4934470469727
 51
185.5065529530272
  0
ARC
  5
D5CF
330
1F
100
AcDbEntity
  8
PIC01
  6
Continuous
 62
     7
100
AcDbCircle
 10
198.7900850220923
 20
84.51865296573828
 30
0.0
 40
0.787249999999977
100
AcDbArc
 50
89.17150651804089
 51
174.4934470469727
  0
LINE
  5
D5D0
330
1F
100
AcDbEntity
  8
PIC01
  6
Continuous
 62
     7
100
AcDbLine
 10
215.7105537183912
 20
76.23918603041554
 30
0.0
 11
215.7105537183912
 21
77.84036990106105
 31
0.0
  0
ARC
  5
D5D1
330
1F
100
AcDbEntity
  8
PIC01
  6
Continuous
 62
     7
100
AcDbCircle
 10
220.9457706964135
 20
77.03976923119483
 30
0.0
 40
3.345812499999998
100
AcDbArc
 50
319.0355177770434
 51
40.96448222295665
  0
ARC
  5
D5D2
330
1F
100
AcDbEntity
  8
PIC01
  6
Continuous
 62
     7
100
AcDbCircle
 10
217.3195331505904
 20
73.89147346810523
 30
0.0
 40
8.1480375
100
AcDbArc
 50
40.96448222295665
 51
68.74572558003809
  0
ARC
  5
D5D3
330
1F
100
AcDbEntity
  8
PIC01
  6
Continuous
 62
     7
100
AcDbCircle
 10
214.9806356615413
 20
77.03977357324146
 30
0.0
 40
5.253178666383562
100
AcDbArc
 50
96.1124055161261
 51
263.8875982413665
  0
ARC
  5
D5D4
330
1F
100
AcDbEntity
  8
PIC01
  6
Continuous
 62
     7
100
AcDbCircle
 10
198.7900850220923
 20
69.56090296573833
 30
0.0
 40
0.7872500000000184
100
AcDbArc
 50
185.5065529530272
 51
270.9095561042763
  0
ARC
  5
D5D5
330
1F
100
AcDbEntity
  8
PIC01
  6
Continuous
 62
     7
100
AcDbCircle
 10
196.5248301414081
 20
-72.1277190250871
 30
0.0
 40
157.45
100
AcDbArc
 50
82.28885588623999
 51
89.17150651804089
  0
ARC
  5
D5D6
330
1F
100
AcDbEntity
  8
PIC01
  6
Continuous
 62
     7
100
AcDbCircle
 10
188.1962977654881
 20
77.0397779657383
 30
0.0
 40
16.53224999999996
100
AcDbArc
 50
336.6344123383977
 51
23.37923053575611
  0
ARC
  5
D5D7
330
1F
100
AcDbEntity
  8
PIC01
  6
Continuous
 62
     7
100
AcDbCircle
 10
200.8429748768324
 20
71.57591607592585
 30
0.0
 40
2.755374999999989
100
AcDbArc
 50
271.681679956062
 51
336.6344123383977
  0
ARC
  5
D5D8
330
1F
100
AcDbEntity
  8
PIC01
  6
Continuous
 62
     7
100
AcDbCircle
 10
200.8420710721248
 20
82.50665113445009
 30
0.0
 40
2.755374999999992
100
AcDbArc
 50
23.37923053575611
 51
88.40077309930668
  0
LINE
  5
D5DB
330
1F
100
AcDbEntity
  8
PIC01
  6
CENTER
 62
     7
 48
0.01
100
AcDbLine
 10
206.8380377644311
 20
79.79515296573831
 30
0.0
 11
208.0947814793848
 21
79.79515296573831
 31
0.0
  0
LINE
  5
D5DC
330
1F
100
AcDbEntity
  8
PIC01
  6
CENTER
 62
     7
 48
0.01
100
AcDbLine
 10
207.4837952253047
 20
79.20471351282507
 30
0.0
 11
207.4837952253048
 21
80.40131772426718
 31
0.0
  0
ARC
  5
D5DD
330
1F
100
AcDbEntity
  8
PIC01
  6
Continuous
 62
     7
100
AcDbCircle
 10
218.8595630463829
 20
77.0397779657383
 30
0.0
 40
1.968125000000003
100
AcDbArc
 50
320.4829446530671
 51
39.51705534693277
  0
CIRCLE
  5
D5DE
330
1F
100
AcDbEntity
  8
PIC01
  6
Continuous
 62
     7
100
AcDbCircle
 10
207.4837945406981
 20
79.79515101282467
 30
0.0
 40
0.5904375000000001
  0
CIRCLE
  5
D5DF
330
1F
100
AcDbEntity
  8
PIC01
  6
Continuous
 62
     7
100
AcDbCircle
 10
207.4837945406981
 20
74.28440491865194
 30
0.0
 40
0.5904375000000001
  0
ARC
  5
D5E0
330
1F
100
AcDbEntity
  8
PIC01
  6
Continuous
 62
     7
100
AcDbCircle
 10
213.7424371271283
 20
77.0397779657383
 30
0.0
 40
2.755374999999992
100
AcDbArc
 50
132.0282348749442
 51
227.9717651250558
  0
ARC
  5
D5E1
330
1F
100
AcDbEntity
  8
PIC01
  6
PHANTOM
 62
     7
100
AcDbCircle
 10
215.5531121271283
 20
77.43340296573828
 30
0.0
 40
3.936250000000009
100
AcDbArc
 50
261.3038275667352
 51
270.8192137154932
  0
ARC
  5
D5E2
330
1F
100
AcDbEntity
  8
PIC01
  6
PHANTOM
 62
     7
100
AcDbCircle
 10
215.5531121271283
 20
76.64615296573831
 30
0.0
 40
3.936249999999989
100
AcDbArc
 50
89.18078628450841
 51
98.69617243326317
  0
LINE
  5
D5E3
330
1F
100
AcDbEntity
  8
PIC01
  6
Continuous
 62
     7
100
AcDbLine
 10
215.5531037183912
 20
76.29188927286131
 30
0.0
 11
215.5531037183912
 21
77.78766665861528
 31
0.0
  0
ARC
  5
D5E5
330
1F
100
AcDbEntity
  8
PIC01
  6
Continuous
 62
     7
100
AcDbCircle
 10
215.5193450314036
 20
74.28464437042336
 30
0.0
 40
6.297999999999989
100
AcDbArc
 50
39.51705534693277
 51
89.18078628450841
  0
ARC
  5
D5E6
330
1F
100
AcDbEntity
  8
PIC01
  6
Continuous
 62
     7
100
AcDbCircle
 10
215.5193450314036
 20
79.79491156105322
 30
0.0
 40
6.298000000000006
100
AcDbArc
 50
270.8192137154932
 51
320.4829446530671
  0
ARC
  5
D5E7
330
1F
100
AcDbEntity
  8
PIC01
  6
Continuous
 62
     7
100
AcDbCircle
 10
214.7265017476311
 20
77.0397779657383
 30
0.0
 40
2.755375000000009
100
AcDbArc
 50
156.2199943535805
 51
203.779983816406
  0
ARC
  5
D5E8
330
1F
100
AcDbEntity
  8
PIC01
  6
Continuous
 62
     7
100
AcDbCircle
 10
212.493222010476
 20
78.02384089118439
 30
0.0
 40
0.3149
100
AcDbArc
 50
90.0
 51
156.2199943535805
  0
ARC
  5
D5E9
330
1F
100
AcDbEntity
  8
PIC01
  6
Continuous
 62
     7
100
AcDbCircle
 10
212.4932216355427
 20
76.05571589118437
 30
0.0
 40
0.3149
100
AcDbArc
 50
203.779983816406
 51
270.0
  0
ARC
  5
D5EA
330
1F
100
AcDbEntity
  8
PIC01
  6
Continuous
 62
     7
100
AcDbCircle
 10
203.7443615708121
 20
38.27296315673803
 30
0.0
 40
5.235212499999999
100
AcDbArc
 50
101.791995576302
 51
109.4257451142084
  0
LINE
  5
D5EB
330
1F
100
AcDbEntity
  8
PIC01
  6
Continuous
 62
     7
100
AcDbLine
 10
212.5194452077097
 20
78.33764624523851
 30
0.0
 11
212.493222010476
 21
78.33874089118438
 31
0.0
  0
LINE
  5
D5EC
330
1F
100
AcDbEntity
  8
PIC01
  6
Continuous
 62
     7
100
AcDbLine
 10
212.5194452077097
 20
75.74190968623804
 30
0.0
 11
212.4932216355427
 21
75.74081589118438
 31
0.0
  0
LINE
  5
D5ED
330
1F
100
AcDbEntity
  8
PIC01
  6
Continuous
 62
     7
100
AcDbLine
 10
215.7105537183912
 20
77.82702796573829
 30
0.0
 11
215.5531037183912
 21
77.7483029657383
 31
0.0
  0
ARC
  5
D5EE
330
1F
100
AcDbEntity
  8
PIC01
 62
     7
100
AcDbCircle
 10
203.7443615708129
 20
38.27296315673726
 30
0.0
 40
4.034656250000753
100
AcDbArc
 50
139.9483246244261
 51
179.9999999999886
  0
ARC
  5
D5EF
330
1F
100
AcDbEntity
  8
PIC01
  6
Continuous
 62
     7
100
AcDbCircle
 10
225.6692695752231
 20
46.22418898127569
 30
0.0
 40
0.3149000000000088
100
AcDbArc
 50
350.6695956820755
 51
90.0
  0
ARC
  5
D5F0
330
1F
100
AcDbEntity
  8
PIC01
  6
Continuous
 62
     7
100
AcDbCircle
 10
199.6113016028313
 20
48.70402565673803
 30
0.0
 40
1.968125000000004
100
AcDbArc
 50
178.9169298281761
 51
185.4269985579009
  0
ARC
  5
D5F1
330
1F
100
AcDbEntity
  8
PIC01
  6
Continuous
 62
     7
100
AcDbCircle
 10
220.1537443271119
 20
47.13039647024982
 30
0.0
 40
5.90437499999999
100
AcDbArc
 50
335.4830481612097
 51
350.6695956820755
  0
LINE
  5
D5F2
330
1F
100
AcDbEntity
  8
PIC01
  6
Continuous
 62
     7
100
AcDbLine
 10
225.6692695752231
 20
46.53908898127568
 30
0.0
 11
205.2815090101702
 21
46.53908814388853
 31
0.0
  0
LINE
  5
D5F3
330
1F
100
AcDbEntity
  8
PIC01
  6
Continuous
 62
     7
100
AcDbLine
 10
197.8399907751807
 20
45.6124676341368
 30
0.0
 11
197.8399907751807
 21
46.53908996834039
 31
0.0
  0
ARC
  5
D5F6
330
1F
100
AcDbEntity
  8
PIC01
  6
Continuous
 62
     7
100
AcDbCircle
 10
208.7031117104531
 20
44.64968828442408
 30
0.0
 40
0.3936250000000004
100
AcDbArc
 50
218.152917196256
 51
270.0000023533133
  0
LINE
  5
D5F7
330
1F
100
AcDbEntity
  8
PIC01
  6
Continuous
 62
     7
100
AcDbLine
 10
198.0761594426384
 20
30.40046241890185
 30
0.0
 11
222.9138993451348
 21
30.40046241890185
 31
0.0
  0
LINE
  5
D5F8
330
1F
100
AcDbEntity
  8
PIC01
  6
Continuous
 62
     7
100
AcDbLine
 10
197.8399907751807
 20
46.53908982139816
 30
0.0
 11
197.6519987055349
 21
48.5178854615329
 31
0.0
  0
ARC
  5
D5F9
330
1F
100
AcDbEntity
  8
PIC01
  6
Continuous
 62
     7
100
AcDbCircle
 10
218.3630683551633
 20
47.94709444325502
 30
0.0
 40
7.872499999999995
100
AcDbArc
 50
302.8926794597057
 51
335.4830481612097
  0
LINE
  5
D5FA
330
1F
100
AcDbEntity
  8
PIC01
  6
Continuous
 62
     7
100
AcDbLine
 10
197.9246283884703
 20
57.56058815673802
 30
0.0
 11
203.5243016386249
 21
57.56058815673802
 31
0.0
  0
LINE
  5
D5FB
330
1F
100
AcDbEntity
  8
PIC01
  6
Continuous
 62
     7
100
AcDbLine
 10
197.805940927208
 20
57.33204072895813
 30
0.0
 11
197.643528226156
 21
48.7412271845692
 31
0.0
  0
ARC
  5
D5FC
330
1F
100
AcDbEntity
  8
PIC01
  6
Continuous
 62
     7
100
AcDbCircle
 10
197.9246283884703
 20
57.67867565673802
 30
0.0
 40
0.1180874999999948
100
AcDbArc
 50
178.6767952911218
 51
270.0
  0
LINE
  5
D5FD
330
1F
100
AcDbEntity
  8
PIC01
  6
Continuous
 62
     7
100
AcDbLine
 10
197.8339326595774
 20
58.86591313162156
 30
0.0
 11
197.8065723778018
 21
57.68140255997934
 31
0.0
  0
LINE
  5
D5FE
330
1F
100
AcDbEntity
  8
PIC01
  6
Continuous
 62
     7
100
AcDbLine
 10
203.994415605631
 20
58.12214593442866
 30
0.0
 11
204.0294850270255
 21
57.56058815673802
 31
0.0
  0
LINE
  5
D5FF
330
1F
100
AcDbEntity
  8
PIC01
  6
Continuous
 62
     7
100
AcDbLine
 10
203.7561514315776
 20
58.37798591072377
 30
0.0
 11
198.1461302681158
 21
59.13262829084459
 31
0.0
  0
ARC
  5
D600
330
1F
100
AcDbEntity
  8
PIC01
  6
Continuous
 62
     7
100
AcDbCircle
 10
203.7194178479324
 20
58.10490797727098
 30
0.0
 40
0.2755375000000002
100
AcDbArc
 50
3.586835182502805
 51
82.33874089505373
  0
ARC
  5
D601
330
1F
100
AcDbEntity
  8
PIC01
  6
Continuous
 62
     7
100
AcDbCircle
 10
205.2815089859191
 20
47.12952564388851
 30
0.0
 40
0.5904375000000006
100
AcDbArc
 50
183.7417679009562
 51
270.0000023533116
  0
ARC
  5
D602
330
1F
100
AcDbEntity
  8
PIC01
  6
Continuous
 62
     7
100
AcDbCircle
 10
203.982498085614
 20
56.73849940845887
 30
0.0
 40
0.078724999999988
100
AcDbArc
 50
3.741767900953026
 51
45.00000000000015
  0
LINE
  5
D603
330
1F
100
AcDbEntity
  8
PIC01
  6
Continuous
 62
     7
100
AcDbLine
 10
204.0610552683093
 20
56.74363698298197
 30
0.0
 11
204.6923301157046
 21
47.09099383496533
 31
0.0
  0
LINE
  5
D604
330
1F
100
AcDbEntity
  8
PIC01
 62
     7
100
AcDbLine
 10
198.0761505582082
 20
37.48571297703615
 30
0.0
 11
198.3636026097495
 21
37.48571297703615
 31
0.0
  0
ARC
  5
D605
330
1F
100
AcDbEntity
  8
PIC01
  6
Continuous
 62
     7
100
AcDbCircle
 10
198.3516990708121
 20
37.64316297703615
 30
0.0
 40
0.15745
100
AcDbArc
 50
270.0
 51
0.0
  0
LINE
  5
D606
330
1F
100
AcDbEntity
  8
PIC01
  6
Continuous
 62
     7
100
AcDbLine
 10
198.5091490708121
 20
37.64316297703615
 30
0.0
 11
198.5091490708121
 21
38.27296315673803
 31
0.0
  0
ARC
  5
D607
330
1F
100
AcDbEntity
  8
PIC01
  6
Continuous
 62
     7
100
AcDbCircle
 10
203.7443615708121
 20
38.27296315673803
 30
0.0
 40
5.235212500000009
100
AcDbArc
 50
168.7855085159638
 51
180.0
  0
LINE
  5
D608
330
1F
100
AcDbEntity
  8
PIC01
  6
Continuous
 62
     7
100
AcDbLine
 10
197.9580630582082
 20
37.21017547703616
 30
0.0
 11
197.9580630582082
 21
37.36762547703615
 31
0.0
  0
ARC
  5
D609
330
1F
100
AcDbEntity
  8
PIC01
 62
     7
100
AcDbCircle
 10
198.0761505582082
 20
37.36762547703615
 30
0.0
 40
0.1180875
100
AcDbArc
 50
90.0
 51
180.0
  0
ARC
  5
D60A
330
1F
100
AcDbEntity
  8
PIC01
 62
     7
100
AcDbCircle
 10
198.0761505582082
 20
37.21017547703616
 30
0.0
 40
0.1180875
100
AcDbArc
 50
180.0
 51
223.0435918671332
  0
LINE
  5
D60D
330
1F
100
AcDbEntity
  8
PIC01
 62
     7
100
AcDbLine
 10
209.1370310350995
 20
41.61877562719218
 30
0.0
 11
209.1370310350995
 21
43.55049870024899
 31
0.0
  0
LINE
  5
D60E
330
1F
100
AcDbEntity
  8
PIC01
 62
     7
100
AcDbLine
 10
198.2926516082638
 20
37.48571297703615
 30
0.0
 11
199.3160803208121
 21
37.48571297703615
 31
0.0
  0
LINE
  5
D60F
330
1F
100
AcDbEntity
  8
PIC01
 62
     7
100
AcDbLine
 10
202.0118525097768
 20
41.50068812719218
 30
0.0
 11
209.0189435350994
 21
41.50068812719218
 31
0.0
  0
ARC
  5
D610
330
1F
100
AcDbEntity
  8
PIC01
 62
     7
100
AcDbCircle
 10
202.0118525097768
 20
39.72937562719216
 30
0.0
 40
1.7713125
100
AcDbArc
 50
90.0
 51
139.9483246244274
  0
LINE
  5
D611
330
1F
100
AcDbEntity
  8
PIC01
 62
     7
100
AcDbLine
 10
199.7097053208121
 20
37.87933797703616
 30
0.0
 11
199.7097053208121
 21
38.27296315673803
 31
0.0
  0
ARC
  5
D612
330
1F
100
AcDbEntity
  8
PIC01
 62
     7
100
AcDbCircle
 10
199.3160803208121
 20
37.87933797703616
 30
0.0
 40
0.393625
100
AcDbArc
 50
270.0
 51
0.0
  0
ARC
  5
D613
330
1F
100
AcDbEntity
  8
PIC01
 62
     7
100
AcDbCircle
 10
209.0189435350994
 20
41.61877562719218
 30
0.0
 40
0.1180875
100
AcDbArc
 50
270.0
 51
0.0
  0
ARC
  5
D614
330
1F
100
AcDbEntity
  8
PIC01
  6
DASHED
 62
     7
100
AcDbCircle
 10
203.7443615708121
 20
38.27296315673803
 30
0.0
 40
5.235212499999994
100
AcDbArc
 50
168.745283709234
 51
168.7855085159638
  0
ARC
  5
D624
330
1F
100
AcDbEntity
  8
PIC01
  6
Continuous
 62
     7
100
AcDbCircle
 10
198.1093966844706
 20
58.85955035739181
 30
0.0
 40
0.2755374999999999
100
AcDbArc
 50
82.33874089505373
 51
178.676795291125
  0
ARC
  5
D625
330
1F
100
AcDbEntity
  8
PIC01
  6
Continuous
 62
     7
100
AcDbCircle
 10
222.9138993451348
 20
30.51854991890185
 30
0.0
 40
0.1180875
100
AcDbArc
 50
270.0
 51
8.908277779067876
  0
LINE
  5
D626
330
1F
100
AcDbEntity
  8
PIC01
  6
Continuous
 62
     7
100
AcDbLine
 10
221.6752481763872
 20
39.18351867346155
 30
0.0
 11
223.0305624151092
 21
30.5368361366734
 31
0.0
  0
ARC
  5
D627
330
1F
100
AcDbEntity
  8
PIC01
  6
Continuous
 62
     7
100
AcDbCircle
 10
198.0761594426384
 20
30.51854991890185
 30
0.0
 40
0.1180875
100
AcDbArc
 50
176.5298634135475
 51
270.0
  0
ARC
  5
D628
330
1F
100
AcDbEntity
  8
PIC01
  6
Continuous
 62
     7
100
AcDbCircle
 10
197.1268238049366
 20
36.32356265740799
 30
0.0
 40
1.180875000000006
100
AcDbArc
 50
356.5298634135459
 51
43.04359186713319
  0
LINE
  5
D629
330
1F
100
AcDbEntity
  8
PIC01
  6
Continuous
 62
     7
100
AcDbLine
 10
198.3055336496627
 20
36.25208631467288
 30
0.0
 11
197.9582884581658
 21
30.52569755317535
 31
0.0
  0
ARC
  5
D62A
330
1F
100
AcDbEntity
  8
PIC01
  6
Continuous
 62
     7
100
AcDbCircle
 10
196.5248301414081
 20
226.2072749565636
 30
0.0
 40
157.45
100
AcDbArc
 50
270.8284934819591
 51
277.7111441137596
  0
ARC
  5
D62B
330
1F
100
AcDbEntity
  8
PIC01
  6
Continuous
 62
     7
100
AcDbCircle
 10
215.8506823631953
 20
79.37890237983018
 30
0.0
 40
5.904374999999999
100
AcDbArc
 50
227.9717651250558
 51
261.3038275667352
  0
ARC
  5
D62C
330
1F
100
AcDbEntity
  8
PIC01
  6
Continuous
 62
     7
100
AcDbCircle
 10
215.8506823631953
 20
74.70065355164635
 30
0.0
 40
5.904374999999997
100
AcDbArc
 50
98.69617243326317
 51
132.0282348749442
  0
ARC
  5
D62D
330
1F
100
AcDbEntity
  8
PIC01
  6
Continuous
 62
     7
100
AcDbCircle
 10
203.7443615708121
 20
37.09208815673804
 30
0.0
 40
6.416087499999994
100
AcDbArc
 50
43.99620903493048
 51
90.0
  0
ARC
  5
D62E
330
1F
100
AcDbEntity
  8
PIC01
  6
DASHED
 62
     7
100
AcDbCircle
 10
208.4732708458164
 20
41.65813812719216
 30
0.0
 40
0.15745
100
AcDbArc
 50
223.9962090349316
 51
270.0
  0
ARC
  5
D631
330
1F
100
AcDbEntity
  8
PIC01
  6
Continuous
 62
     7
100
AcDbCircle
 10
203.7443615708121
 20
38.27296315673803
 30
0.0
 40
5.235212499999994
100
AcDbArc
 50
90.0
 51
101.7983020016544
  0
ARC
  5
D632
330
1F
100
AcDbEntity
  8
PIC01
  6
Continuous
 62
     7
100
AcDbCircle
 10
188.9584442113346
 20
41.21533025910756
 30
0.0
 40
9.840625000000009
100
AcDbArc
 50
348.7452837092338
 51
24.52804033751397
  0
ARC
  5
D633
330
1F
100
AcDbEntity
  8
PIC01
  6
Continuous
 62
     7
100
AcDbCircle
 10
198.6272407751807
 20
45.62737060599721
 30
0.0
 40
0.7872499999999944
100
AcDbArc
 50
180.0
 51
204.528040337514
  0
ARC
  5
D634
330
1F
100
AcDbEntity
  8
PIC01
  6
Continuous
 62
     7
100
AcDbCircle
 10
203.7443615708121
 20
38.27296315673803
 30
0.0
 40
5.235212499999994
100
AcDbArc
 50
109.4257451142084
 51
109.4460844435608
  0
ARC
  5
D635
330
1F
100
AcDbEntity
  8
PIC01
  6
Continuous
 62
     7
100
AcDbCircle
 10
203.7443615708121
 20
38.27296315673803
 30
0.0
 40
5.235212499999994
100
AcDbArc
 50
109.4460844435608
 51
168.745283709234
  0
ARC
  5
D636
330
1F
100
AcDbEntity
  8
PIC01
  6
Continuous
 62
     7
100
AcDbCircle
 10
203.7443615708121
 20
38.27296315673803
 30
0.0
 40
5.235212499999994
100
AcDbArc
 50
168.745283709234
 51
180.0
  0
LINE
  5
D637
330
1F
100
AcDbEntity
  8
PIC01
  6
Continuous
 62
     7
100
AcDbLine
 10
215.7105537183912
 20
76.25252796573829
 30
0.0
 11
215.5531037183912
 21
76.33125296573829
 31
0.0
  0
ARC
  5
D638
330
1F
100
AcDbEntity
  8
PIC01
  6
Continuous
 62
     7
100
AcDbCircle
 10
209.897087991007
 20
107.1225301808683
 30
0.0
 40
31.49
100
AcDbArc
 50
274.7768880853741
 51
280.5194617413712
  0
ARC
  5
D639
330
1F
100
AcDbEntity
  8
PIC01
  6
Continuous
 62
     7
100
AcDbCircle
 10
209.897087991007
 20
46.95702575060827
 30
0.0
 40
31.49
100
AcDbArc
 50
79.48053825862881
 51
85.22311191462588
  0
ARC
  5
D63A
330
1F
100
AcDbEntity
  8
PIC01
  6
Continuous
 62
     7
100
AcDbCircle
 10
215.6318287183912
 20
76.23918603041554
 30
0.0
 40
0.078725
100
AcDbArc
 50
280.5194617413728
 51
0.0
  0
ARC
  5
D63B
330
1F
100
AcDbEntity
  8
PIC01
  6
Continuous
 62
     7
100
AcDbCircle
 10
215.6318287183912
 20
77.84036990106105
 30
0.0
 40
0.078725
100
AcDbArc
 50
0.0
 51
79.48053825862716
  0
LINE
  5
D63C
330
1F
100
AcDbEntity
  8
PIC01
  6
Continuous
 62
     7
100
AcDbLine
 10
208.370405513203
 20
43.98321205154442
 30
0.0
 11
209.068849464687
 21
43.65752232310046
 31
0.0
  0
ARC
  5
D63D
330
1F
100
AcDbEntity
  8
PIC01
  6
Continuous
 62
     7
100
AcDbCircle
 10
208.7031117104531
 20
44.69670287055428
 30
0.0
 40
0.7872500000000001
100
AcDbArc
 50
204.0813382777019
 51
245.0000023533121
  0
ARC
  5
D63E
330
1F
100
AcDbEntity
  8
PIC01
  6
Continuous
 62
     7
100
AcDbCircle
 10
209.0189435350994
 20
43.55049870024899
 30
0.0
 40
0.1180875
100
AcDbArc
 50
0.0
 51
65.00000235331251
  0
ARC
  5
D63F
330
1F
100
AcDbEntity
  8
PIC01
  6
Continuous
 62
     7
100
AcDbCircle
 10
215.7499202253047
 20
69.85612171573828
 30
0.0
 40
12.47791249999999
100
AcDbArc
 50
68.74572397372848
 51
96.1124017586335
  0
ARC
  5
D640
330
1F
100
AcDbEntity
  8
PIC01
  6
Continuous
 62
     7
100
AcDbCircle
 10
223.8140711259186
 20
39.51876599927371
 30
0.0
 40
2.1649375
100
AcDbArc
 50
122.8926794597057
 51
188.9082777790712
  0
LINE
  5
D641
330
1F
100
AcDbEntity
  8
PIC01
  6
Continuous
 62
     7
100
AcDbLine
 10
208.3935788641441
 20
44.40652155627074
 30
0.0
 11
204.4834677554017
 21
44.10989280257576
 31
0.0
  0
ARC
  5
D642
330
1F
100
AcDbEntity
  8
PIC01
  6
Continuous
 62
     7
100
AcDbCircle
 10
204.1857116237081
 20
48.03486482139817
 30
0.0
 40
3.936250000000002
100
AcDbArc
 50
270.0
 51
274.3382614750686
  0
LINE
  5
D643
330
1F
100
AcDbEntity
  8
PIC01
  6
Continuous
 62
     7
100
AcDbLine
 10
198.3671938904089
 20
44.09861482139819
 30
0.0
 11
204.1857116237081
 21
44.09861482139817
 31
0.0
  0
LINE
  5
D644
330
1F
100
AcDbEntity
  8
PIC01
  6
Continuous
 62
     7
100
AcDbLine
 10
254.8885254466633
 20
46.53908378478436
 30
0.0
 11
241.3095734597212
 21
46.53908378478436
 31
0.0
  0
ARC
  5
D647
330
1F
100
AcDbEntity
  8
PIC01
  6
Continuous
 62
     7
100
AcDbCircle
 10
241.3095734597212
 20
46.22418378478434
 30
0.0
 40
0.3149
100
AcDbArc
 50
90.0
 51
183.9289828432291
  0
LINE
  5
D649
330
1F
100
AcDbEntity
  8
PIC01
  6
Continuous
 62
     7
100
AcDbLine
 10
252.6547459624646
 20
30.40046241890187
 30
0.0
 11
252.9237466413966
 21
30.40046241890187
 31
0.0
  0
LINE
  5
D64F
330
1F
100
AcDbEntity
  8
PIC01
  6
Continuous
 62
     7
100
AcDbLine
 10
243.5375333450032
 20
30.40046241890187
 30
0.0
 11
243.2743522649879
 21
30.40046241890187
 31
0.0
  0
LINE
  5
D657
330
1F
100
AcDbEntity
  8
0
 62
     7
100
AcDbLine
 10
243.5433529439199
 20
30.40046241890187
 30
0.0
 11
252.6547459624646
 21
30.40046241890187
 31
0.0
  0
ARC
  5
D658
330
1F
100
AcDbEntity
  8
PIC01
  6
Continuous
 62
     7
100
AcDbCircle
 10
252.4289244531923
 20
48.7040214644862
 30
0.0
 40
3.936249999999998
100
AcDbArc
 50
356.0944475233309
 51
2.914174779070373
  0
ARC
  5
D65B
330
1F
100
AcDbEntity
  8
PIC01
  6
Continuous
 62
     7
100
AcDbCircle
 10
243.7691744531922
 20
48.7040214644862
 30
0.0
 40
3.936249999999998
100
AcDbArc
 50
178.5827856353195
 51
183.9055524766691
  0
LINE
  5
D65F
330
1F
100
AcDbEntity
  8
PIC01
  6
Continuous
 62
     7
100
AcDbLine
 10
255.4412525250855
 20
44.09861062914638
 30
0.0
 11
255.9128558498888
 21
44.09861062914638
 31
0.0
  0
ARC
  5
D660
330
1F
100
AcDbEntity
  8
PIC01
  6
Continuous
 62
     7
100
AcDbCircle
 10
254.1907447790741
 20
60.52140722540571
 30
0.0
 40
1.968125000000003
100
AcDbArc
 50
273.8632409583744
 51
298.5878445805194
  0
ARC
  5
D661
330
1F
100
AcDbEntity
  8
PIC01
  6
Continuous
 62
     7
100
AcDbCircle
 10
248.0990494531922
 20
-173.1036663260957
 30
0.0
 40
232.23875
100
AcDbArc
 50
88.2470541610299
 51
91.7513392318435
  0
ARC
  5
D662
330
1F
100
AcDbEntity
  8
PIC01
  6
Continuous
 62
     7
100
AcDbCircle
 10
318.5350468795162
 20
46.85430610985761
 30
0.0
 40
78.72499999999998
100
AcDbArc
 50
172.3477141842043
 51
178.5827856353195
  0
LINE
  5
D663
330
1F
100
AcDbEntity
  8
PIC01
  6
Continuous
 62
     7
100
AcDbLine
 10
240.7047446346429
 20
57.52122146448622
 30
0.0
 11
240.7114981719451
 21
57.52122146448622
 31
0.0
  0
LINE
  5
D664
330
1F
100
AcDbEntity
  8
PIC01
  6
Continuous
 62
     7
100
AcDbLine
 10
240.649077653294
 20
57.49816344583513
 30
0.0
 11
240.5334943571438
 21
57.38258014968488
 31
0.0
  0
ARC
  5
D665
330
1F
100
AcDbEntity
  8
PIC01
  6
Continuous
 62
     7
100
AcDbCircle
 10
240.5891613384927
 20
57.32691316833601
 30
0.0
 40
0.0787250000000006
100
AcDbArc
 50
135.0000000000056
 51
172.3477141842043
  0
ARC
  5
D666
330
1F
100
AcDbEntity
  8
PIC01
  6
Continuous
 62
     7
100
AcDbCircle
 10
240.7047446346429
 20
57.44249646448622
 30
0.0
 40
0.0787250000000006
100
AcDbArc
 50
90.0
 51
134.9999999999952
  0
ARC
  5
D667
330
1F
100
AcDbEntity
  8
PIC01
  6
Continuous
 62
     7
100
AcDbCircle
 10
240.7114981719451
 20
57.56058396448622
 30
0.0
 40
0.0393625000000032
100
AcDbArc
 50
270.0
 51
330.0000000000019
  0
ARC
  5
D668
330
1F
100
AcDbEntity
  8
PIC01
  6
Continuous
 62
     7
100
AcDbCircle
 10
240.7796760218581
 20
57.52122146448622
 30
0.0
 40
0.0393625
100
AcDbArc
 50
90.0
 51
149.9999999999922
  0
ARC
  5
D669
330
1F
100
AcDbEntity
  8
PIC01
  6
Continuous
 62
     7
100
AcDbCircle
 10
240.6595369531923
 20
57.6786714644862
 30
0.0
 40
0.1180875000000009
100
AcDbArc
 50
168.2858221481322
 51
270.0
  0
ARC
  5
D66A
330
1F
100
AcDbEntity
  8
PIC01
  6
Continuous
 62
     7
100
AcDbCircle
 10
177.6630520268682
 20
46.85430610985761
 30
0.0
 40
78.72499999999998
100
AcDbArc
 50
1.417214364680428
 51
7.652285815795637
  0
LINE
  5
D66B
330
1F
100
AcDbEntity
  8
PIC01
  6
Continuous
 62
     7
100
AcDbLine
 10
255.5490212530903
 20
57.49816344583513
 30
0.0
 11
255.6646045492406
 21
57.38258014968488
 31
0.0
  0
ARC
  5
D66C
330
1F
100
AcDbEntity
  8
PIC01
  6
Continuous
 62
     7
100
AcDbCircle
 10
255.6089375678917
 20
57.32691316833601
 30
0.0
 40
0.0787250000000006
100
AcDbArc
 50
7.652285815795637
 51
45.00000000000359
  0
LINE
  5
D66D
330
1F
100
AcDbEntity
  8
PIC01
  6
Continuous
 62
     7
100
AcDbLine
 10
255.4933542717415
 20
57.52122146448622
 30
0.0
 11
255.4866007344393
 21
57.52122146448622
 31
0.0
  0
ARC
  5
D66E
330
1F
100
AcDbEntity
  8
PIC01
  6
Continuous
 62
     7
100
AcDbCircle
 10
255.4933542717415
 20
57.44249646448622
 30
0.0
 40
0.0787250000000006
100
AcDbArc
 50
44.99999999999438
 51
90.0
  0
ARC
  5
D66F
330
1F
100
AcDbEntity
  8
PIC01
  6
Continuous
 62
     7
100
AcDbCircle
 10
255.4866007344393
 20
57.56058396448622
 30
0.0
 40
0.039362500000001
100
AcDbArc
 50
209.9999999999868
 51
270.0
  0
ARC
  5
D670
330
1F
100
AcDbEntity
  8
PIC01
  6
Continuous
 62
     7
100
AcDbCircle
 10
248.0990494531922
 20
150.7304689990871
 30
0.0
 40
92.3826347759825
100
AcDbArc
 50
270.0
 51
273.8632409583744
  0
LINE
  5
D671
330
1F
100
AcDbEntity
  8
PIC01
  6
Continuous
 62
     7
100
AcDbLine
 10
240.7385215009596
 20
58.7993455346924
 30
0.0
 11
240.5432668340963
 21
57.69930922264157
 31
0.0
  0
ARC
  5
D672
330
1F
100
AcDbEntity
  8
PIC01
  6
Continuous
 62
     7
100
AcDbCircle
 10
241.0098184455166
 20
58.75119076566324
 30
0.0
 40
0.2755375000000007
100
AcDbArc
 50
91.7513392318435
 51
169.9349204529689
  0
LINE
  5
D673
330
1F
100
AcDbEntity
  8
PIC01
  6
Continuous
 62
     7
100
AcDbLine
 10
255.4595774054249
 20
58.7993455346924
 30
0.0
 11
255.6548320722881
 21
57.69930922264157
 31
0.0
  0
ARC
  5
D674
330
1F
100
AcDbEntity
  8
PIC01
  6
Continuous
 62
     7
100
AcDbCircle
 10
255.1882804608678
 20
58.75119076566324
 30
0.0
 40
0.2755375000000007
100
AcDbArc
 50
10.06507954702939
 51
88.2486607681565
  0
ARC
  5
D675
330
1F
100
AcDbEntity
  8
PIC01
  6
Continuous
 62
     7
100
AcDbCircle
 10
255.5385619531922
 20
57.6786714644862
 30
0.0
 40
0.1180875000000009
100
AcDbArc
 50
279.0755450158106
 51
11.71417785187105
  0
ARC
  5
D676
330
1F
100
AcDbEntity
  8
PIC01
  6
Continuous
 62
     7
100
AcDbCircle
 10
248.0990494531922
 20
104.2523814644857
 30
0.0
 40
47.28223499999947
100
AcDbArc
 50
270.0
 51
279.0755450158134
  0
ARC
  5
D677
330
1F
100
AcDbEntity
  8
PIC01
  6
DASHED
 62
     7
100
AcDbCircle
 10
255.4184228845264
 20
57.52122146448622
 30
0.0
 40
0.0393625
100
AcDbArc
 50
30.00000000002255
 51
90.0
  0
ARC
  5
D678
330
1F
100
AcDbEntity
  8
PIC01
  6
PHANTOM
 62
     7
100
AcDbCircle
 10
242.0073541273103
 20
60.52140722540571
 30
0.0
 40
1.968125000000003
100
AcDbArc
 50
241.4121554194805
 51
266.136759041624
  0
ARC
  5
D679
330
1F
100
AcDbEntity
  8
PIC01
  6
Continuous
 62
     7
100
AcDbCircle
 10
248.0990494531922
 20
150.7304689990871
 30
0.0
 40
92.3826347759825
100
AcDbArc
 50
266.1367590416256
 51
270.0
  0
ARC
  5
D67A
330
1F
100
AcDbEntity
  8
PIC01
  6
DASHED
 62
     7
100
AcDbCircle
 10
255.5385619531922
 20
57.6786714644862
 30
0.0
 40
0.1180875000000119
100
AcDbArc
 50
270.0
 51
279.0755450158106
  0
ARC
  5
D67B
330
1F
100
AcDbEntity
  8
PIC01
  6
Continuous
 62
     7
100
AcDbCircle
 10
248.0990494531922
 20
104.2523814644857
 30
0.0
 40
47.28223499999947
100
AcDbArc
 50
260.9244549841862
 51
270.0
  0
ARC
  5
DB09
330
1F
100
AcDbEntity
  8
PIC01
  6
Continuous
 62
     7
100
AcDbCircle
 10
188.3235001478351
 20
77.05334689169511
 30
0.0
 40
15.74499999999998
100
AcDbArc
 50
338.330816320545
 51
21.56240016828636
  0
ARC
  5
DB0A
330
1F
100
AcDbEntity
  8
PIC01
  6
Continuous
 62
     7
100
AcDbCircle
 10
200.395165288138
 20
72.2569671755944
 30
0.0
 40
2.755375000000004
100
AcDbArc
 50
271.516411669865
 51
338.330816320545
  0
ARC
  5
DB0B
330
1F
100
AcDbEntity
  8
PIC01
  6
Continuous
 62
     7
100
AcDbCircle
 10
198.9008755150191
 20
70.25623311044795
 30
0.0
 40
0.7872499999981747
100
AcDbArc
 50
185.0137760816043
 51
270.9507281534027
  0
ARC
  5
DB0C
330
1F
100
AcDbEntity
  8
PIC01
  6
Continuous
 62
     7
100
AcDbCircle
 10
196.3014370680954
 20
226.8974159370716
 30
0.0
 40
157.45
100
AcDbArc
 50
270.9507281534027
 51
271.516411669865
  0
ARC
  5
DB0D
330
1F
100
AcDbEntity
  8
PIC01
  6
Continuous
 62
     7
100
AcDbCircle
 10
276.377679623653
 20
77.05334689169511
 30
0.0
 40
78.56164562499998
100
AcDbArc
 50
175.0060155389053
 51
185.0137763630471
  0
ARC
  5
DB0E
330
1F
100
AcDbEntity
  8
PIC01
  6
Continuous
 62
     7
100
AcDbCircle
 10
198.8985278020935
 20
83.82369753592051
 30
0.0
 40
0.7872499999999985
100
AcDbArc
 50
89.2170441282648
 51
175.0060155389053
  0
ARC
  5
DB0F
330
1F
100
AcDbEntity
  8
PIC01
  6
Continuous
 62
     7
100
AcDbCircle
 10
200.4040834450088
 20
81.8272200404783
 30
0.0
 40
2.755374999999999
100
AcDbArc
 50
21.56240016828636
 51
88.64935490103455
  0
ARC
  5
DB10
330
1F
100
AcDbEntity
  8
PIC01
  6
Continuous
 62
     7
100
AcDbCircle
 10
196.7577732202561
 20
-72.82442536181118
 30
0.0
 40
157.4499999999999
100
AcDbArc
 50
88.64935490103455
 51
89.2170441282648
  0
LINE
  5
DC24
330
1F
100
AcDbEntity
  8
0
  6
Continuous
 62
     7
370
    25
100
AcDbLine
 10
240.2931167690917
 20
55.60100689120535
 30
0.0
 11
240.4466196249255
 21
56.85118732679896
 31
0.0
  0
LINE
  5
E135
330
1F
100
AcDbEntity
  8
0
  6
HIDDEN
 62
     0
 48
0.1
100
AcDbLine
 10
198.3787936695468
 20
30.40046241890192
 30
0.0
 11
202.5540001809491
 21
30.40046241890192
 31
0.0
  0
LINE
  5
E14A
330
1F
100
AcDbEntity
  8
0
  6
HIDDEN
 62
     0
 48
0.1
100
AcDbLine
 10
210.669097299218
 20
30.40046241890192
 30
0.0
 11
208.1172431513914
 21
30.40046241890192
 31
0.0
  0
LINE
  5
E15D
330
1F
100
AcDbEntity
  8
0
  6
HIDDEN
 62
     0
 48
0.1
100
AcDbLine
 10
211.669097299218
 20
30.40046241890192
 30
0.0
 11
209.1172431513914
 21
30.40046241890192
 31
0.0
  0
LINE
  5
E160
330
1F
100
AcDbEntity
  8
0
  6
HIDDEN
 62
     0
 48
0.1
100
AcDbLine
 10
212.6690972992181
 20
30.40046241890193
 30
0.0
 11
210.1172431513914
 21
30.40046241890193
 31
0.0
  0
LINE
  5
E24A
330
1F
100
AcDbEntity
  8
0
100
AcDbLine
 10
208.7031117266205
 20
44.2560632844241
 30
0.0
 11
214.7465143088337
 21
44.65698395143218
 31
0.0
  0
LINE
  5
E254
330
1F
100
AcDbEntity
  8
PIC01
  6
CENTER
 62
     7
 48
0.01
100
AcDbLine
 10
206.8382271706648
 20
74.27213290138074
 30
0.0
 11
208.0949708856185
 21
74.27213290138074
 31
0.0
  0
LINE
  5
E255
330
1F
100
AcDbEntity
  8
PIC01
  6
CENTER
 62
     7
 48
0.01
100
AcDbLine
 10
207.4839846315384
 20
73.6816934484675
 30
0.0
 11
207.4839846315384
 21
74.87829765990962
 31
0.0
  0
LINE
  5
E3B5
330
1F
100
AcDbEntity
  8
0
  6
Continuous
 62
     7
370
     0
100
AcDbLine
 10
253.8491700469287
 20
46.53885271524714
 30
0.0
 11
252.5446062070634
 21
46.53885271524714
 31
0.0
  0
LINE
  5
E3B8
330
1F
100
AcDbEntity
  8
0
  6
Continuous
 62
     7
370
     0
100
AcDbLine
 10
243.6534903533286
 20
46.53885271524714
 30
0.0
 11
242.3489262194632
 21
46.53885271524714
 31
0.0
  0
LINE
  5
E851
330
1F
100
AcDbEntity
  8
PIC01
  6
Continuous
 62
     7
100
AcDbLine
 10
240.1772438014719
 20
44.245340069649
 30
0.0
 11
239.9853675559753
 21
46.34063138654435
 31
0.0
  0
ARC
  5
E852
330
1F
100
AcDbEntity
  8
PIC01
  6
Continuous
 62
     7
100
AcDbCircle
 10
240.3343281526377
 20
44.25606430010186
 30
0.0
 40
0.1574500000000003
100
AcDbArc
 50
183.9055524766658
 51
265.0268818357995
  0
LINE
  5
E853
330
1F
100
AcDbEntity
  8
PIC01
  6
Continuous
 62
     7
100
AcDbLine
 10
241.3295695880772
 20
44.20539936128226
 30
0.0
 11
241.340841792187
 21
44.32263028402444
 31
0.0
  0
LINE
  5
E854
330
1F
100
AcDbEntity
  8
PIC01
  6
Continuous
 62
     7
100
AcDbLine
 10
240.709182855973
 20
44.09861430010187
 30
0.0
 11
241.2120242243533
 21
44.09861430010187
 31
0.0
  0
ARC
  5
E855
330
1F
100
AcDbEntity
  8
PIC01
  6
Continuous
 62
     7
100
AcDbCircle
 10
241.2120242243533
 20
44.21670180010187
 30
0.0
 40
0.1180875000000029
100
AcDbArc
 50
270.0
 51
354.5076754428689
  0
ARC
  5
E856
330
1F
100
AcDbEntity
  8
PIC01
  6
Continuous
 62
     7
100
AcDbCircle
 10
240.473007855973
 20
44.03957055010187
 30
0.0
 40
0.05904375
100
AcDbArc
 50
180.0
 51
270.0
  0
ARC
  5
E857
330
1F
100
AcDbEntity
  8
PIC01
  6
Continuous
 62
     7
100
AcDbCircle
 10
240.591095355973
 20
44.03957055010187
 30
0.0
 40
0.05904375
100
AcDbArc
 50
270.0
 51
0.0
  0
ARC
  5
E858
330
1F
100
AcDbEntity
  8
PIC01
  6
Continuous
 62
     7
100
AcDbCircle
 10
240.709182855973
 20
44.03957055010187
 30
0.0
 40
0.05904375
100
AcDbArc
 50
90.0
 51
180.0
  0
ARC
  5
E859
330
1F
100
AcDbEntity
  8
PIC01
  6
Continuous
 62
     7
100
AcDbCircle
 10
240.354920355973
 20
44.03957055010187
 30
0.0
 40
0.05904375
100
AcDbArc
 50
0.0
 51
90.0
  0
LINE
  5
E85A
330
1F
100
AcDbEntity
  8
PIC01
  6
Continuous
 62
     7
100
AcDbLine
 10
240.354920355973
 20
44.09861430010187
 30
0.0
 11
240.3206790731919
 21
44.09920702379541
 31
0.0
  0
LINE
  5
E85B
330
1F
100
AcDbEntity
  8
PIC01
  6
Continuous
 62
     7
100
AcDbLine
 10
256.0701912447661
 20
44.245340069649
 30
0.0
 11
256.3558874280576
 21
48.43010816394346
 31
0.0
  0
ARC
  5
E85C
330
1F
100
AcDbEntity
  8
PIC01
  6
Continuous
 62
     7
100
AcDbCircle
 10
255.9131068936002
 20
44.25606430010186
 30
0.0
 40
0.1574500000000003
100
AcDbArc
 50
270.0
 51
356.0944475233342
  0
LINE
  5
E85D
330
1F
100
AcDbEntity
  8
PIC01
  6
Continuous
 62
     7
100
AcDbLine
 10
254.8577592016202
 20
44.32263028402447
 30
0.0
 11
254.86903140573
 21
44.20539936128226
 31
0.0
  0
LINE
  5
E85E
330
1F
100
AcDbEntity
  8
PIC01
  6
Continuous
 62
     7
100
AcDbLine
 10
254.9865767694539
 20
44.09861430010187
 30
0.0
 11
255.9131068936002
 21
44.09861430010187
 31
0.0
  0
ARC
  5
E85F
330
1F
100
AcDbEntity
  8
PIC01
  6
Continuous
 62
     7
100
AcDbCircle
 10
254.9865767694539
 20
44.21670180010187
 30
0.0
 40
0.1180875000000029
100
AcDbArc
 50
185.492324557131
 51
270.0
  0
LINE
  5
E860
330
1F
100
AcDbEntity
  8
PIC01
  6
Continuous
 62
     7
100
AcDbLine
 10
242.3125145878586
 20
30.4004629583607
 30
0.0
 11
253.8855843185259
 21
30.40046187944305
 31
0.0
  0
LINE
  5
E861
330
1F
100
AcDbEntity
  8
PIC01
  6
Continuous
 62
     7
100
AcDbLine
 10
255.6468681378343
 20
43.98052680010187
 30
0.0
 11
255.7649556378343
 21
43.98052680010187
 31
0.0
  0
ARC
  5
E862
330
1F
100
AcDbEntity
  8
PIC01
  6
Continuous
 62
     7
100
AcDbCircle
 10
255.7649556378343
 20
44.03957055010187
 30
0.0
 40
0.05904375
100
AcDbArc
 50
270.0
 51
0.0
  0
ARC
  5
E863
330
1F
100
AcDbEntity
  8
PIC01
  6
Continuous
 62
     7
100
AcDbCircle
 10
255.6468681378343
 20
44.03957055010187
 30
0.0
 40
0.05904375
100
AcDbArc
 50
180.0
 51
270.0
  0
ARC
  5
E864
330
1F
100
AcDbEntity
  8
PIC01
  6
Continuous
 62
     7
100
AcDbCircle
 10
255.8830431378343
 20
44.03957055010187
 30
0.0
 40
0.05904375
100
AcDbArc
 50
90.0
 51
180.0
  0
ARC
  5
E865
330
1F
100
AcDbEntity
  8
PIC01
  6
Continuous
 62
     7
100
AcDbCircle
 10
255.5287806378343
 20
44.03957055010187
 30
0.0
 40
0.05904375
100
AcDbArc
 50
0.0
 51
90.0
  0
LINE
  5
E866
330
1F
100
AcDbEntity
  8
PIC01
  6
Continuous
 62
     7
100
AcDbLine
 10
253.4202627654627
 20
40.33062373001626
 30
0.0
 11
254.0034634960707
 21
30.52556079078585
 31
0.0
  0
ARC
  5
E867
330
1F
100
AcDbEntity
  8
PIC01
  6
Continuous
 62
     7
100
AcDbCircle
 10
253.8855843294236
 20
30.5185493910082
 30
0.0
 40
0.1180875000000006
100
AcDbArc
 50
269.9999947124652
 51
3.403916813267132
  0
ARC
  5
E868
330
1F
100
AcDbEntity
  8
PIC01
  6
Continuous
 62
     7
100
AcDbCircle
 10
252.948746098874
 20
40.3025781309055
 30
0.0
 40
0.4723500000003708
100
AcDbArc
 50
3.403916813282624
 51
44.99999999997768
  0
LINE
  5
E869
330
1F
100
AcDbEntity
  8
PIC01
  6
Continuous
 62
     7
100
AcDbLine
 10
242.7783382283445
 20
40.33062373001626
 30
0.0
 11
242.1951374977365
 21
30.52556079078585
 31
0.0
  0
ARC
  5
E86A
330
1F
100
AcDbEntity
  8
PIC01
  6
Continuous
 62
     7
100
AcDbCircle
 10
242.3130166643836
 20
30.5185493910082
 30
0.0
 40
0.1180875000000006
100
AcDbArc
 50
176.5960831867328
 51
270.0000052875349
  0
ARC
  5
E86B
330
1F
100
AcDbEntity
  8
PIC01
  6
Continuous
 62
     7
100
AcDbCircle
 10
243.2498548949323
 20
40.30257813090585
 30
0.0
 40
0.472349999999519
100
AcDbArc
 50
134.9999999999716
 51
176.5960831867532
  0
LINE
  5
E86C
330
1F
100
AcDbEntity
  8
PIC01
  6
Continuous
 62
     7
100
AcDbLine
 10
252.9697772756872
 20
40.94955073027975
 30
0.0
 11
253.2827479869679
 21
40.63658001899911
 31
0.0
  0
LINE
  5
E86D
330
1F
100
AcDbEntity
  8
PIC01
  6
Continuous
 62
     7
100
AcDbLine
 10
243.2288237181199
 20
40.94955073027975
 30
0.0
 11
242.9158530068393
 21
40.63658001899912
 31
0.0
  0
ARC
  5
E86E
330
1F
100
AcDbEntity
  8
PIC01
  6
Continuous
 62
     7
100
AcDbCircle
 10
240.9517373217104
 20
51.59867436444161
 30
0.0
 40
15.745
100
AcDbArc
 50
320.5979880818475
 51
329.7354811048029
  0
ARC
  5
E86F
330
1F
100
AcDbEntity
  8
PIC01
  6
Continuous
 62
     7
100
AcDbCircle
 10
251.1510470396391
 20
45.64714869111509
 30
0.0
 40
3.936249999999994
100
AcDbArc
 50
329.7354811048029
 51
340.3366813508773
  0
ARC
  5
E870
330
1F
100
AcDbEntity
  8
PIC01
  6
Continuous
 62
     7
100
AcDbCircle
 10
255.2471858556764
 20
39.85541986011637
 30
0.0
 40
2.755375000000001
100
AcDbArc
 50
140.5979880818474
 51
147.345859768222
  0
ARC
  5
E871
330
1F
100
AcDbEntity
  8
PIC01
  6
Continuous
 62
     7
100
AcDbCircle
 10
253.1924452010829
 20
41.17221865567539
 30
0.0
 40
0.3149
100
AcDbArc
 50
147.345859768222
 51
225.0000000000042
  0
ARC
  5
E872
330
1F
100
AcDbEntity
  8
PIC01
  6
Continuous
 62
     7
100
AcDbCircle
 10
240.9514151381308
 20
39.85541986011637
 30
0.0
 40
2.755375000000001
100
AcDbArc
 50
32.65414023177792
 51
39.40201191815253
  0
ARC
  5
E873
330
1F
100
AcDbEntity
  8
PIC01
  6
Continuous
 62
     7
100
AcDbCircle
 10
243.0061557927243
 20
41.17221865567539
 30
0.0
 40
0.3149
100
AcDbArc
 50
314.9999999999959
 51
32.65414023177792
  0
ARC
  5
E874
330
1F
100
AcDbEntity
  8
PIC01
  6
Continuous
 62
     7
100
AcDbCircle
 10
255.2468636720968
 20
51.59867436444161
 30
0.0
 40
15.74500000000003
100
AcDbArc
 50
210.2645188951971
 51
219.4020119181526
  0
ARC
  5
E875
330
1F
100
AcDbEntity
  8
PIC01
  6
Continuous
 62
     7
100
AcDbCircle
 10
245.0475539541681
 20
45.64714869111497
 30
0.0
 40
3.936249999999998
100
AcDbArc
 50
199.6633186491227
 51
210.2645188951971
  0
LINE
  5
E876
330
1F
100
AcDbEntity
  8
PIC01
  6
DASHED
 62
     7
100
AcDbLine
 10
240.3646994925744
 20
44.09861430010187
 30
0.0
 11
240.709182855973
 21
44.09861430010187
 31
0.0
  0
LINE
  5
E877
330
1F
100
AcDbEntity
  8
PIC01
  6
Continuous
 62
     7
100
AcDbLine
 10
256.070195567342
 20
44.24534173430912
 30
0.0
 11
256.3562885986256
 21
48.43592103877959
 31
0.0
  0
LINE
  5
E878
330
1F
100
AcDbEntity
  8
PIC01
  6
Continuous
 62
     7
100
AcDbLine
 10
239.9853675559753
 20
46.34063138654435
 30
0.0
 11
239.8423210403335
 21
48.43592103877958
 31
0.0
  0
LINE
  5
E879
330
1F
100
AcDbEntity
  8
PIC01
  6
Continuous
 62
     7
100
AcDbLine
 10
256.0701912447659
 20
44.24534173430912
 30
0.0
 11
256.3562842760497
 21
48.43592103877959
 31
0.0
  0
LINE
  5
E87A
330
1F
100
AcDbEntity
  8
PIC01
  6
Continuous
 62
     7
100
AcDbLine
 10
256.0701912447659
 20
44.24534173430912
 30
0.0
 11
256.3562842760497
 21
48.43592103877959
 31
0.0
  0
ARC
  5
E87B
330
1F
100
AcDbEntity
  8
PIC01
  6
Continuous
 62
     7
100
AcDbCircle
 10
254.8887764903747
 20
46.22418378476093
 30
0.0
 40
0.3149
100
AcDbArc
 50
356.0710171567685
 51
90.0
  0
ARC
  5
E87C
330
1F
100
AcDbEntity
  8
PIC01
  6
Continuous
 62
     7
100
AcDbCircle
 10
246.1708391268289
 20
46.82294371237499
 30
0.0
 40
9.053374999999995
100
AcDbArc
 50
346.7160698412428
 51
356.0710171567685
  0
ARC
  5
E87D
330
1F
100
AcDbEntity
  8
PIC01
  6
Continuous
 62
     7
100
AcDbCircle
 10
241.3098245034324
 20
46.22418378476093
 30
0.0
 40
0.3149
100
AcDbArc
 50
90.0
 51
183.9289828432315
  0
ARC
  5
E87E
330
1F
100
AcDbEntity
  8
PIC01
  6
Continuous
 62
     7
100
AcDbCircle
 10
250.0277618669783
 20
46.82294371237499
 30
0.0
 40
9.053374999999995
100
AcDbArc
 50
183.9289828432315
 51
193.2839301587562
  0
ARC
  5
E87F
330
1F
100
AcDbEntity
  8
PIC01
  6
Continuous
 62
     7
100
AcDbCircle
 10
251.1510470396391
 20
45.64714721178201
 30
0.0
 40
3.936249999999997
100
AcDbArc
 50
340.3366861993466
 51
346.7160698412428
  0
ARC
  5
E880
330
1F
100
AcDbEntity
  8
PIC01
  6
Continuous
 62
     7
100
AcDbCircle
 10
245.0475539541681
 20
45.6471472117819
 30
0.0
 40
3.93625
100
AcDbArc
 50
193.2839301587562
 51
199.6633138006534
  0
LINE
  5
E8CE
330
1F
100
AcDbEntity
  8
0
 62
     7
100
AcDbLine
 10
240.473007855973
 20
43.98052680010187
 30
0.0
 11
240.591095355973
 21
43.98052680010187
 31
0.0
  0
VIEWPORT
  5
73F1
330
73E5
100
AcDbEntity
 67
     1
  8
0
100
AcDbViewport
 10
11.76934245667248
 20
8.10016498545208
 30
0.0
 40
47.52645103641353
 41
28.38986843185929
 68
     1
 69
     1
 12
11.76934245667248
 22
8.10016498545208
 13
0.0
 23
0.0
 14
0.5
 24
0.5
 15
0.5
 25
0.5
 16
0.0
 26
0.0
 36
1.0
 17
0.0
 27
0.0
 37
0.0
 42
50.0
 43
0.0
 44
0.0
 45
28.38986843185929
 50
0.0
 51
0.0
 72
  1000
 90
    32800
  1

281
     0
 71
     1
 74
     0
110
0.0
120
0.0
130
0.0
111
1.0
121
0.0
131
0.0
112
0.0
122
1.0
132
0.0
 79
     0
146
0.0
170
     0
  0
VIEWPORT
  5
73F3
330
73E5
100
AcDbEntity
 67
     1
  8
Defpoints
 62
     5
100
AcDbViewport
 10
0.4591509069387092
 20
1.823481322373908
 30
0.0
 40
8.5
 41
11.0
 68
     2
 69
     2
 12
226.8938591829288
 22
67.65919973681771
 13
0.0
 23
0.0
 14
0.5
 24
0.5
 15
0.5
 25
0.5
 16
0.0
 26
0.0
 36
1.0
 17
0.0
 27
0.0
 37
0.0
 42
50.0
 43
0.0
 44
0.0
 45
88.00000018827637
 50
0.0
 51
0.0
 72
  1000
 90
    32864
  1

281
     0
 71
     1
 74
     0
110
0.0
120
0.0
130
0.0
111
1.0
121
0.0
131
0.0
112
0.0
122
1.0
132
0.0
 79
     0
146
0.0
170
     0
  0
ENDSEC
  0
SECTION
  2
OBJECTS
  0
DICTIONARY
  5
C
330
0
100
AcDbDictionary
281
     1
  3
ACAD_COLOR
350
73
  3
ACAD_GROUP
350
D
  3
ACAD_LAYOUT
350
1A
  3
ACAD_MATERIAL
350
72
  3
ACAD_MLINESTYLE
350
17
  3
ACAD_PLOTSETTINGS
350
19
  3
ACAD_PLOTSTYLENAME
350
E
  3
ACAD_TABLESTYLE
350
86
  3
AcDbVariableDictionary
350
66
  3
ASE_INDEX_DICTIONARY
350
CF30
  0
DICTIONARY
  5
97
330
2
100
AcDbDictionary
280
     1
281
     1
  3
ACAD_LAYERFILTERS
360
36CA
  3
ACAD_LAYERSTATES
360
98
  3
ACLYDICTIONARY
360
36C9
  0
DICTIONARY
  5
43B2
330
43B1
100
AcDbDictionary
280
     1
281
     1
  3
ACAD_XREC_ROUNDTRIP
360
43B3
  0
DICTIONARY
  5
43B5
330
43B4
100
AcDbDictionary
280
     1
281
     1
  3
ACAD_XREC_ROUNDTRIP
360
43B6
  0
DICTIONARY
  5
43B8
330
43B7
100
AcDbDictionary
280
     1
281
     1
  3
ACAD_XREC_ROUNDTRIP
360
43B9
  0
DICTIONARY
  5
43BB
330
43BA
100
AcDbDictionary
280
     1
281
     1
  3
ACAD_XREC_ROUNDTRIP
360
43BC
  0
DICTIONARY
  5
43BE
330
43BD
100
AcDbDictionary
280
     1
281
     1
  3
ACAD_XREC_ROUNDTRIP
360
43BF
  0
DICTIONARY
  5
43C1
330
43C0
100
AcDbDictionary
280
     1
281
     1
  3
ACAD_XREC_ROUNDTRIP
360
43C2
  0
DICTIONARY
  5
43C4
330
43C3
100
AcDbDictionary
280
     1
281
     1
  3
ACAD_XREC_ROUNDTRIP
360
43C5
  0
DICTIONARY
  5
43C7
330
43C6
100
AcDbDictionary
280
     1
281
     1
  3
ACAD_XREC_ROUNDTRIP
360
43C8
  0
DICTIONARY
  5
43CA
330
43C9
100
AcDbDictionary
280
     1
281
     1
  3
ACAD_XREC_ROUNDTRIP
360
43CB
  0
DICTIONARY
  5
43CD
330
43CC
100
AcDbDictionary
280
     1
281
     1
  3
ACAD_XREC_ROUNDTRIP
360
43CE
  0
DICTIONARY
  5
43D0
330
43CF
100
AcDbDictionary
280
     1
281
     1
  3
ACAD_XREC_ROUNDTRIP
360
43D1
  0
DICTIONARY
  5
C9C7
330
1F
100
AcDbDictionary
280
     1
281
     1
  3
ACAD_SORTENTS
360
C9C8
  0
DICTIONARY
  5
B3
330
B2
100
AcDbDictionary
280
     1
281
     1
  3
ACAD_SORTENTS
360
B4
  0
DICTIONARY
  5
4312
330
4311
100
AcDbDictionary
280
     1
281
     1
  3
ACAD_SORTENTS
360
4313
  0
DICTIONARY
  5
E0CC
330
E09F
100
AcDbDictionary
280
     1
281
     1
  3
ACAD_SORTENTS
360
E0CD
  0
DICTIONARY
  5
73
102
{ACAD_REACTORS
330
C
102
}
330
C
100
AcDbDictionary
281
     1
  0
DICTIONARY
  5
D
102
{ACAD_REACTORS
330
C
102
}
330
C
100
AcDbDictionary
281
     1
  0
DICTIONARY
  5
1A
102
{ACAD_REACTORS
330
C
102
}
330
C
100
AcDbDictionary
281
     1
  3
Model
350
22
  3
toilet 8.5x11
350
73E6
  0
DICTIONARY
  5
72
102
{ACAD_REACTORS
330
C
102
}
330
C
100
AcDbDictionary
281
     1
  3
Global
350
43D6
  0
DICTIONARY
  5
17
102
{ACAD_REACTORS
330
C
102
}
330
C
100
AcDbDictionary
281
     1
  3
Standard
350
18
  0
DICTIONARY
  5
19
102
{ACAD_REACTORS
330
C
102
}
330
C
100
AcDbDictionary
281
     1
  3
Setup1
350
A580
  0
ACDBDICTIONARYWDFLT
  5
E
102
{ACAD_REACTORS
330
C
102
}
330
C
100
AcDbDictionary
281
     1
  3
Normal
350
F
100
AcDbDictionaryWithDefault
340
F
  0
DICTIONARY
  5
86
102
{ACAD_REACTORS
330
C
102
}
330
C
100
AcDbDictionary
281
     1
  3
Standard
350
87
  0
DICTIONARY
  5
66
102
{ACAD_REACTORS
330
C
102
}
330
C
100
AcDbDictionary
281
     1
  3
CTABLESTYLE
350
36F
  3
DIMASSOC
350
67
  3
HIDETEXT
350
6B
  0
DICTIONARY
  5
CF30
102
{ACAD_REACTORS
330
C
102
}
330
C
100
AcDbDictionary
281
     1
  3
ASEBlockHierarchyIndexRecord
350
CF31
1001
DCO15
1040
1662369317.164
  0
DICTIONARY
  5
36CA
102
{ACAD_REACTORS
330
97
102
}
330
97
100
AcDbDictionary
281
     1
  0
DICTIONARY
  5
98
102
{ACAD_REACTORS
330
97
102
}
330
97
100
AcDbDictionary
281
     1
  0
DICTIONARY
  5
36C9
102
{ACAD_REACTORS
330
97
102
}
330
97
100
AcDbDictionary
281
     1
1001
ACAD
1000
<All
  0
XRECORD
  5
43B3
102
{ACAD_REACTORS
330
43B2
102
}
330
43B2
100
AcDbXrecord
280
     1
102
MATERIAL
340
43D6
  0
XRECORD
  5
43B6
102
{ACAD_REACTORS
330
43B5
102
}
330
43B5
100
AcDbXrecord
280
     1
102
MATERIAL
340
43D6
  0
XRECORD
  5
43B9
102
{ACAD_REACTORS
330
43B8
102
}
330
43B8
100
AcDbXrecord
280
     1
102
MATERIAL
340
43D6
  0
XRECORD
  5
43BC
102
{ACAD_REACTORS
330
43BB
102
}
330
43BB
100
AcDbXrecord
280
     1
102
MATERIAL
340
43D6
  0
XRECORD
  5
43BF
102
{ACAD_REACTORS
330
43BE
102
}
330
43BE
100
AcDbXrecord
280
     1
102
MATERIAL
340
43D6
  0
XRECORD
  5
43C2
102
{ACAD_REACTORS
330
43C1
102
}
330
43C1
100
AcDbXrecord
280
     1
102
MATERIAL
340
43D6
  0
XRECORD
  5
43C5
102
{ACAD_REACTORS
330
43C4
102
}
330
43C4
100
AcDbXrecord
280
     1
102
MATERIAL
340
43D6
  0
XRECORD
  5
43C8
102
{ACAD_REACTORS
330
43C7
102
}
330
43C7
100
AcDbXrecord
280
     1
102
MATERIAL
340
43D6
  0
XRECORD
  5
43CB
102
{ACAD_REACTORS
330
43CA
102
}
330
43CA
100
AcDbXrecord
280
     1
102
MATERIAL
340
43D6
  0
XRECORD
  5
43CE
102
{ACAD_REACTORS
330
43CD
102
}
330
43CD
100
AcDbXrecord
280
     1
102
MATERIAL
340
43D6
  0
XRECORD
  5
43D1
102
{ACAD_REACTORS
330
43D0
102
}
330
43D0
100
AcDbXrecord
280
     1
102
MATERIAL
340
43D6
  0
SORTENTSTABLE
  5
C9C8
102
{ACAD_REACTORS
330
C9C7
102
}
330
C9C7
100
AcDbSortentsTable
330
1F
331
D649
  5
D649
331
D60E
  5
D60E
331
DB09
  5
DB0A
331
D673
  5
D674
331
D638
  5
D638
331
D5CD
  5
D5CD
331
D5F7
  5
D5F7
331
D610
  5
D610
331
D5E6
  5
D5E6
331
DB0B
  5
DB0C
331
D675
  5
D676
331
D63A
  5
D63A
331
D5CF
  5
D5CF
331
D5F9
  5
D5F9
331
D612
  5
D612
331
DB0D
  5
DB0E
331
D677
  5
D678
331
D63C
  5
D63C
331
D5D1
  5
D5D1
331
D660
  5
D661
331
D625
  5
D625
331
D5C0
  5
D5C0
331
D5FB
  5
D5FB
331
D64F
  5
D64F
331
D614
  5
D614
331
DB0F
  5
DB10
331
D63E
  5
D63E
331
D5D3
  5
D5D3
331
D662
  5
D663
331
D627
  5
D627
331
D5FD
  5
D5FD
331
D5C2
  5
D5C2
331
D5D5
  5
D5D5
331
D664
  5
D665
331
D629
  5
D629
331
D5FF
  5
D5FF
331
D5C4
  5
D5C4
331
D5E8
  5
D5E8
331
D601
  5
D601
331
D5D7
  5
D5D7
331
D666
  5
D667
331
D62B
  5
D62B
331
D5C6
  5
D5C6
331
D5EA
  5
D5EA
331
D603
  5
D603
331
D668
  5
D669
331
D62D
  5
D62D
331
D657
  5
D657
331
D5EC
  5
D5EC
331
D640
  5
D640
331
D605
  5
D605
331
D5DB
  5
D5DB
331
D66A
  5
D66B
331
D5EE
  5
D5EE
331
D607
  5
D607
331
D642
  5
D642
331
D5DD
  5
D5DD
331
D631
  5
D631
331
D66C
  5
D66D
331
D65B
  5
D65B
331
D5F0
  5
D5F0
331
D609
  5
D609
331
D644
  5
D644
331
D5DF
  5
D5DF
331
D633
  5
D633
331
D66E
  5
D66F
331
D5C8
  5
D5C8
331
D5F2
  5
D5F2
331
D679
  5
D67A
331
D5E1
  5
D5E1
331
D635
  5
D635
331
D670
  5
D671
331
D65F
  5
D660
331
D5CA
  5
D5CA
331
D67B
  5
D67C
331
D60D
  5
D60D
331
D5E3
  5
D5E3
331
D637
  5
D637
331
D672
  5
D673
331
D5CC
  5
D5CC
331
D5F6
  5
D5F6
331
D60F
  5
D60F
331
D5E5
  5
D5E5
331
DB0A
  5
DB0B
331
D639
  5
D639
331
D674
  5
D675
331
D5CE
  5
D5CE
331
D5F8
  5
D5F8
331
D611
  5
D611
331
D5E7
  5
D5E7
331
DB0C
  5
DB0D
331
D63B
  5
D63B
331
D676
  5
D677
331
D5D0
  5
D5D0
331
D624
  5
D624
331
D5FA
  5
D5FA
331
D613
  5
D613
331
DB0E
  5
DB0F
331
D63D
  5
D63D
331
D5D2
  5
D5D2
331
D626
  5
D626
331
D661
  5
D662
331
D5FC
  5
D5FC
331
D5C1
  5
D5C1
331
DB10
  5
DB26
331
D63F
  5
D63F
331
D5D4
  5
D5D4
331
D628
  5
D628
331
D663
  5
D664
331
D5FE
  5
D5FE
331
D5C3
  5
D5C3
331
D600
  5
D600
331
D5D6
  5
D5D6
331
D62A
  5
D62A
331
D665
  5
D666
331
D5C5
  5
D5C5
331
D5E9
  5
D5E9
331
D602
  5
D602
331
D5D8
  5
D5D8
331
D62C
  5
D62C
331
D667
  5
D668
331
D5C7
  5
D5C7
331
D5EB
  5
D5EB
331
D604
  5
D604
331
D62E
  5
D62E
331
D669
  5
D66A
331
D658
  5
D658
331
D5ED
  5
D5ED
331
D606
  5
D606
331
D641
  5
D641
331
D5DC
  5
D5DC
331
D66B
  5
D66C
331
D5EF
  5
D5EF
331
D643
  5
D643
331
D608
  5
D608
331
D5DE
  5
D5DE
331
D66D
  5
D66E
331
D632
  5
D632
331
D5F1
  5
D5F1
331
D678
  5
D679
331
D60A
  5
D60A
331
D5E0
  5
D5E0
331
D66F
  5
D670
331
D634
  5
D634
331
D5C9
  5
D5C9
331
D5F3
  5
D5F3
331
D647
  5
D647
331
D67A
  5
D67B
331
D5E2
  5
D5E2
331
D671
  5
D672
331
D636
  5
D636
331
D5CB
  5
D5CB
  0
SORTENTSTABLE
  5
B4
102
{ACAD_REACTORS
330
B3
102
}
330
B3
100
AcDbSortentsTable
330
B2
  0
SORTENTSTABLE
  5
4313
102
{ACAD_REACTORS
330
4312
102
}
330
4312
100
AcDbSortentsTable
330
4311
  0
SORTENTSTABLE
  5
E0CD
102
{ACAD_REACTORS
330
E0CC
102
}
330
E0CC
100
AcDbSortentsTable
330
E09F
  0
LAYOUT
  5
22
102
{ACAD_REACTORS
330
1A
102
}
330
1A
100
AcDbPlotSettings
  1

  2
none_device
  4
ANSI_A_(8.50_x_11.00_Inches)
  6

 40
6.349999904632568
 41
19.04999923706055
 42
6.350006103515625
 43
19.04998779296875
 44
215.8999938964844
 45
279.3999938964844
 46
0.0
 47
0.0
 48
0.0
 49
0.0
140
0.0
141
0.0
142
1.0
143
2.584895464708373
 70
 11952
 72
     0
 73
     1
 74
     0
  7

 75
     0
147
0.3868628397755418
 76
     0
 77
     2
 78
   300
148
0.0
149
0.0
100
AcDbLayout
  1
Model
 70
     1
 71
     0
 10
0.0
 20
0.0
 11
12.0
 21
9.0
 12
0.0
 22
0.0
 32
0.0
 14
0.0
 24
0.0
 34
0.0
 15
0.0
 25
0.0
 35
0.0
146
0.0
 13
0.0
 23
0.0
 33
0.0
 16
1.0
 26
0.0
 36
0.0
 17
0.0
 27
1.0
 37
0.0
 76
     0
330
1F
  0
LAYOUT
  5
73E6
102
{ACAD_XDICTIONARY
360
73F9
102
}
102
{ACAD_REACTORS
330
1A
102
}
330
1A
100
AcDbPlotSettings
  1

  2
none_device
  4
Letter_(8.50_x_11.00_Inches)
  6

 40
6.349999904632568
 41
6.349999904632568
 42
6.350006103515625
 43
6.350006103515625
 44
215.8999938964844
 45
279.3999938964844
 46
0.0
 47
0.0
 48
0.0
 49
0.0
140
0.0
141
0.0
142
1.0
143
1.0
 70
   688
 72
     0
 73
     1
 74
     5
  7

 75
    16
147
1.0
 76
     0
 77
     2
 78
   300
148
0.0
149
0.0
100
AcDbLayout
  1
toilet 8.5x11
 70
     1
 71
     1
 10
0.0
 20
0.0
 11
12.0
 21
9.0
 12
0.0
 22
0.0
 32
0.0
 14
-3.79084909306129
 24
-3.676518677626091
 34
0.0
 15
4.709150906938709
 25
7.323481322373908
 35
0.0
146
0.0
 13
0.0
 23
0.0
 33
0.0
 16
1.0
 26
0.0
 36
0.0
 17
0.0
 27
1.0
 37
0.0
 76
     0
330
73E5
331
73F1
1001
ACAD_PSEXT
1000
None
1000
None
1000
Not applicable
1000
The layout will not be plotted unless a new plotter configuration name is selected.
1070
     0
  0
MATERIAL
  5
43D6
102
{ACAD_XDICTIONARY
360
43D7
102
}
102
{ACAD_REACTORS
330
72
102
}
330
72
100
AcDbMaterial
  1
Global
  0
MLINESTYLE
  5
18
102
{ACAD_REACTORS
330
17
102
}
330
17
100
AcDbMlineStyle
  2
STANDARD
 70
     0
  3

 62
   256
 51
90.0
 52
90.0
 71
     2
 49
0.5
 62
   256
  6
BYLAYER
 49
-0.5
 62
   256
  6
BYLAYER
  0
PLOTSETTINGS
  5
A580
102
{ACAD_REACTORS
330
19
102
}
330
19
100
AcDbPlotSettings
  1
Setup1
  2
none_device
  4
Letter_(8.50_x_11.00_Inches)
  6

 40
6.349999904632568
 41
6.349999904632568
 42
6.350006103515625
 43
6.350006103515625
 44
215.8999938964844
 45
279.3999938964844
 46
0.0
 47
0.0
 48
0.0
 49
0.0
140
0.0
141
0.0
142
1.0
143
1.0
 70
 15024
 72
     0
 73
     1
 74
     5
  7

 75
    16
147
1.0
 76
     0
 77
     2
 78
   300
148
0.0
149
0.0
1001
ACAD_PSEXT
1000
None
1000
None
1000
Not applicable
1000
The layout will not be plotted unless a new plotter configuration name is selected.
1070
     0
  0
ACDBPLACEHOLDER
  5
F
102
{ACAD_REACTORS
330
E
102
}
330
E
  0
TABLESTYLE
  5
87
102
{ACAD_REACTORS
330
86
102
}
330
86
100
AcDbTableStyle
  3
Standard
 70
     0
 71
     0
 40
0.06
 41
0.06
280
     0
281
     0
  7
Standard
140
0.18
170
     2
 62
     0
 63
     7
283
     0
274
    -2
284
     1
 64
     0
275
    -2
285
     1
 65
     0
276
    -2
286
     1
 66
     0
277
    -2
287
     1
 67
     0
278
    -2
288
     1
 68
     0
279
    -2
289
     1
 69
     0
  7
Standard
140
0.25
170
     5
 62
     0
 63
     7
283
     0
274
    -2
284
     1
 64
     0
275
    -2
285
     1
 65
     0
276
    -2
286
     1
 66
     0
277
    -2
287
     1
 67
     0
278
    -2
288
     1
 68
     0
279
    -2
289
     1
 69
     0
  7
Standard
140
0.18
170
     5
 62
     0
 63
     7
283
     0
274
    -2
284
     1
 64
     0
275
    -2
285
     1
 65
     0
276
    -2
286
     1
 66
     0
277
    -2
287
     1
 67
     0
278
    -2
288
     1
 68
     0
279
    -2
289
     1
 69
     0
  0
DICTIONARYVAR
  5
36F
102
{ACAD_REACTORS
330
66
102
}
330
66
100
DictionaryVariables
280
     0
  1
STANDARD
  0
DICTIONARYVAR
  5
67
102
{ACAD_REACTORS
330
66
102
}
330
66
100
DictionaryVariables
280
     0
  1
2
  0
DICTIONARYVAR
  5
6B
102
{ACAD_REACTORS
330
66
102
}
330
66
100
DictionaryVariables
280
     0
  1
1
  0
XRECORD
  5
CF31
102
{ACAD_REACTORS
330
CF30
102
}
330
CF30
100
AcDbXrecord
280
     1
330
0
330
0
330
0
330
0
330
0
330
0
330
0
330
0
330
0
  0
DICTIONARY
  5
73F9
330
73E6
100
AcDbDictionary
280
     1
281
     1
  3
ADSK_XREC_LAYOUTTHUMBNAIL
360
73FA
  0
DICTIONARY
  5
43D7
330
43D6
100
AcDbDictionary
280
     1
281
     1
  3
ACAD_XREC_ROUNDTRIP
360
43D8
  0
XRECORD
  5
73FA
102
{ACAD_REACTORS
330
73F9
102
}
330
73F9
100
AcDbXrecord
280
     1
310
28000000B4000000870000000100080000000000EC5E0000000000000000000000010000000000000000000000000000FFFFFF000000000000000000000000000000000000000000000000000000000000000000330000006600000099000000CC000000FF00000000330000333300006633000099330000CC330000FF3300
310
0000660000336600006666000099660000CC660000FF66000000990000339900006699000099990000CC990000FF99000000CC000033CC000066CC000099CC0000CCCC0000FFCC000000FF000033FF000066FF000099FF0000CCFF0000FFFF000000003300330033006600330099003300CC003300FF003300003333003333
310
33006633330099333300CC333300FF33330000663300336633006666330099663300CC663300FF66330000993300339933006699330099993300CC993300FF99330000CC330033CC330066CC330099CC3300CCCC3300FFCC330000FF330033FF330066FF330099FF3300CCFF3300FFFF330000006600330066006600660099
310
006600CC006600FF00660000336600333366006633660099336600CC336600FF33660000666600336666006666660099666600CC666600FF66660000996600339966006699660099996600CC996600FF99660000CC660033CC660066CC660099CC6600CCCC6600FFCC660000FF660033FF660066FF660099FF6600CCFF6600
310
FFFF660000009900330099006600990099009900CC009900FF00990000339900333399006633990099339900CC339900FF33990000669900336699006666990099669900CC669900FF66990000999900339999006699990099999900CC999900FF99990000CC990033CC990066CC990099CC9900CCCC9900FFCC990000FF99
310
0033FF990066FF990099FF9900CCFF9900FFFF99000000CC003300CC006600CC009900CC00CC00CC00FF00CC000033CC003333CC006633CC009933CC00CC33CC00FF33CC000066CC003366CC006666CC009966CC00CC66CC00FF66CC000099CC003399CC006699CC009999CC00CC99CC00FF99CC0000CCCC0033CCCC0066CC
310
CC0099CCCC00CCCCCC00FFCCCC0000FFCC0033FFCC0066FFCC0099FFCC00CCFFCC00FFFFCC000000FF003300FF006600FF009900FF00CC00FF00FF00FF000033FF003333FF006633FF009933FF00CC33FF00FF33FF000066FF003366FF006666FF009966FF00CC66FF00FF66FF000099FF003399FF006699FF009999FF00CC
310
99FF00FF99FF0000CCFF0033CCFF0066CCFF0099CCFF00CCCCFF00FFCCFF0000FFFF0033FFFF0066FFFF0099FFFF00CCFFFF00FFFFFF00000000000D0D0D001A1A1A00282828003535350043434300505050005D5D5D006B6B6B00787878008686860093939300A1A1A100AEAEAE00BBBBBB00C9C9C900D6D6D600E4E4E400
310
F1F1F100FFFFFF0000000000000000000000000000000000000000000000000000000000000000000000000000000000E2E2E2E2E2E2E2E2E2E2E2E2E2E2E2E2E2E2E2E2E2E2E2E2E2E2E2E2E2E2E2F5E2E2E2E2E2E2E2E2E2E2E2E2E2E2E2E2E2E2E2E2E2E2E2E2E2E2E2E2E2E2F5E2E2E2E2E2E2E20FE2E2E2E2E2E2E2E2
310
E2E2E2E2E2E2E2E2E2E2E2E2E2E2E2E2E2E2E2E2E2E2E2E2E2E2E2E2E2E2E2E2E2E2E2E2E2E2E2E2E2E2E2E2E2E2E2E2E2E2E2E2E2E2E2E2E2E2E2E2E2E2E2E2E2E2E2E2E2E2E2E2E2E2E2E2E2E2E2E2E2E2E2E2E2E2E2E2E2E2E2E2E2E2E2E2E2E2E2E2E2E2E2E2E2E2E2E2E2E2E2E2E2E2E2E2E2E2E2E2E2E2E2E2E2E2E2
310
E2E2E2E2E2E2F5E2E2E2E2E2E2E2E2E2E2E2E2E2E2E2E2E2E2E2E2E2E2E2E2E2E2E2E2F5E2E2E2E2E2E2E2E20FE2E2E2E2E2E2E2E2E2E2E2E2E2E2E2E2E2E2E2E2E2E2E2E2E2E2E2E2E2E2E2E2E2E2E2E2E2E2E2E2E2E2E2E2E2E2E2E2E2E2E2E2E2E2E2E2E2E2E2E2E2E2E2E2E2E2E2E2E2E2E2E2E2E2E2E2E2E2E2E2E2E2
310
E2E2E2E2E2E2E2E2E2E2E2E2E2E2E2E2E2E2E2E2E2E2E2E2E2E2E2E2E2E2E2E2E2E2E2E2E2E2E2E2E2E2E2E2E2E2E2E2E2E2E2E2E2E2E2E2E2E2E2F5E2E2E2E2E2E2E2E2E2E2E2E2E2E2E2E2E2E2E2E2E2E2E2E2E2E2E2E2F5E2E2E2E2E2E2E2E20FE2E2E2E2E2E2E2E2E2E2E2E2E2E2E2E2E2E2E2E2E2E2E2E2E2E2E2E2E2
310
E2E2E2E2E2E2E2E2E2E2E2E2E2E2E2E2E2E2E2E2E2E2E2E2E2E2E2E2E2E2E2E2E2E2E2E2E2E2E2E2E2E2E2E2E2E2E2E2E2E2E2E2E2E2E2E2E2E2E2E2E2E2E2E2E2E2E2E2E2E2E2E2E2E2E2E2E2E2E2E2E2E2E2E2E2E2E2E2E2E2E2E2E2E2E2E2E2E2E2E2E2E2E2E2E2E2E2E2E2E2E2E2F5E2E2E2E2E2E2E2E2E2E2E2E2E2E2
310
E2E2E2E2E2E2E2E2E2E2E2E2E2E2F5E2E2E2E2E2E2E2E20FE2E2E2E2E2E2E2E2E2E2E2E2E2E2E2E2E2E2E2E2E2E2E2E2E2E2E2E2E2E2E2E2E2E2E2E2E2E2E2E2E2E2E2E2E2E2E2E2E2E2E2E2E2E2E2E2E2E2E2E2E2E2E2E2E2E2E2E2E2E2E2E2E2E2E2E2E2E2E2E2E2E2E2E2E2E2E2E2E2E2E2E2E2E2E2E2E2E2E2E2E2E2E2
310
E2E2E2E2E2E2E2E2E2E2E2E2E2E2E2E2E2E2E2E2E2E2E2E2E2E2E2E2E2E2E2E2E2E2E2E2E2E2F5E2E2E2E2E2E2E2E2E2E2E2E2E2E2E2E2E2E2E2E2E2E2E2E2E2E2E2E2F5E2E2E2E2E2E2E2E20FE2E2E2E2E2E2E2E2E2E2E2E2E2E2E2E2E2E2E2E2E2E2E2E2E2E2E2E2E2E2E2E2E2E2E2E2E2E2E2E2E2E2E2E2E2E2E2E2E2E2
310
E2E2E2E2E2E2E2E2E2E2E2E2E2E2E2E2E2E2E2E2E2E2E2E2E2E2E2E2E2E2E2E2E2E2E2E2E2E2E2E2E2E2E2E2E2E2E2E2E2E2E2E2E2E2E2E2E2E2E2E2E2E2E2E2E2E2E2E2E2E2E2E2E2E2E2E2E2E2E2E2E2E2E2E2E2E2E2E2E2E2E2F5E2E2E2E2E2E2E2E2E2E2E2E2E2E2E2E2E2E2E2E2E2E2E2E2E2E2E2E2F5E2E2E2E2E2E2
310
E2E20FE2E2E2E2E2E2E2E2E2E2E2E2E2E2E2E2E2E2E2E2E2E2E2E2E2E2E2E2E2E2E2E2E2E2E2E2E2E2E2E2E2E2E2E2E2E2E2E2E2E2E2E2E2E2E2E2E2E2E2E2E2E2E2E2E2E2E2E2E2E2E2E2E2E2E2E2E2E2E2E2E2E2E2E2E2E2E2E2E2E2E2E2E2E2E2E2E2E2E2E2E2E2E2E2E2E2E2E2E2E2E2E2E2E2E2E2E2E2E2E2E2E2E2E2
310
E2E2E2E2E2E2E2E2E2E2E2E2E2E2E2E2E2F5E2E2E2E2E2E2E2E2E2E2E2E2E2E2E2E2E2E2E2E2E2E2E2E2E2E2E2E2F5E2E2E2E2E2E2E2E20FE2E2E2E2E2E2E2E2E2E2E2E2E2E2E2E2E2E2E2E2E2E2E2E2E2E2E2E2E2E2E2E2E2E2E2E2E2E2E2E2E2E2E2E2E2E2E2E2E2E2E2E2E2E2E2E2E2E2E2E2E2E2E2E2E2E2E2E2E2E2E2
310
E2E2E2E2E2E2E2E2E2E2E2E2E2E2E2E2E2E2E2E2E2E2E2E2E2E2E2E2E2E2E2E2E2E2E2E2E2E2E2E2E2E2E2E2E2E2E2E2E2E2E2E2E2E2E2E2E2E2E2E2E2E2E2E2E2E2E2E2E2E2F5E2E2E2E2E2E2E2E2E2E2E2E2E2E2E2E2E2E2E2E2E2E2E2E2E2E2E2E2F5E2E2E2E2E2E2E2E20FE2E2E2E2E2E2E2E2E2E2E2E2E2E2E2E2E2E2
310
E2E2E2E2E2E2E2E2E2E2E2E2E2E2E2E2E2E2E2E2E2E2E2E2E2E2E2E2E2E2E2E2E2E2E2E2E2E2E2E2E2E2E2E2E2E2E2E2E2E2E2E2E2E2E2E2E2E2E2E2E2E2E2E2E2E2E2E2E2E2E2E2E2E2E2E2E2E2E2E2E2E2E2E2E2E2E2E2E2E2E2E2E2E2E2E2E2E2E2E2E2E2E2E2E2E2E2E2E2E2E2E2E2E2E2E2E2E2E2E2E2E2E2F5E2E2E2
310
F5F5F5F5F5F5F5F5F5F5F5F5F5F5F5F5F5F5F5F5F5F5E2E2F5F5E2E2E2E2E2E2E2E20FE2E2E2E2E2E2E2E2E2E2E2E2E2E2E2E2E2E2E2E2E2E2E2E2E2E2E2E2E2E2E2E2E2E2E2E2E2E2E2E2E2E2E2E2E2E2E2E2E2E2E2E2E2E2E2E2E2E2E2E2E2E2E2E2E2E2E2E2E2E2E2E2E2E2E2E2E2E2E2E2E2E2E2E2E2E2E2E2E2E2E2E2
310
E2E2E2E2E2E2E2E2E2E2E2E2E2E2E2E2E2E2E2E2E2E2E2E2E2E2E2E2E2E2E2E2E2E2E2E2E2E2E2E2E2E2E2E2E2E2E2E2E2F5F5F5F5E2E2E2E2E2E2E2E2E2E2E2E2E2E2E2E2E2E2E2E2E2E2F5F5F5E2E2E2E2E2E2E2E2E20FE2E2E2E2E2E2E2E2E2E2E2E2E2E2E2E2E2E2E2E2E2E2E2E2E2E2E2E2E2E2E2E2E2E2E2E2E2E2E2
310
E2E2E2E2E2E2E2E2E2E2E2E2E2E2E2E2E2E2E2E2E2E2E2E2E2E2E2E2E2E2E2E2E2E2E2E2E2E2E2E2E2E2E2E2E2E2E2E2E2E2E2E2E2E2E2E2E2E2E2E2E2E2E2E2E2E2E2E2E2E2E2E2E2E2E2E2E2E2E2E2E2E2E2E2E2E2E2E2E2E2E2E2E2E2E2E2E2E2E2E2E2E2E2F5E2E2E2E2E2F5F5F5F5F5F5F5F5F5F5F5F5F5F5F5F5E2E2
310
E2E2E2F5E2E2E2E2E2E2E2E2E20FE2E2E2E2E2E2E2E2E2E2E2E2E2E2E2E2E2E2E2E2E2E2E2E2E2E2E2E2E2E2E2E2E2E2E2E2E2E2E2E2E2E2E2E2E2E2E2E2E2E2E2E2E2E2E2E2E2E2E2E2E2E2E2E2E2E2E2E2E2E2E2E2E2E2E2E2E2E2E2E2E2E2E2E2E2E2E2E2E2E2E2E2E2E2E2E2E2E2E2E2E2E2E2E2E2E2E2E2E2E2E2E2E2
310
E2E2E2E2E2E2E2E2E2E2E2E2E2E2E2E2E2E2E2E2E2E2E2E2E2E2E2E2E2F5F5F5F5F5F5E2E2E2E2E2E2E2E2E2E2E2E2E2E2E2E2F5F5F5F5F5F5E2E2E2E2E2E2E2E2E20FE2E2E2E2E2E2E2E2E2E2E2E2E2E2E2E2E2E2E2E2E2E2E2E2E2E2E2E2E2E2E2E2E2E2E2E2E2E2E2E2E2E2E2E2E2E2E2E2E2E2E2E2E2E2E2E2E2E2E2E2
310
E2E2E2E2E2E2E2E2E2E2E2E2E2E2E2E2E2E2E2E2E2E2E2E2E2E2E2E2E2E2E2E2E2E2E2E2E2E2E2E2E2E2E2E2E2E2E2E2E2E2E2E2E2E2E2E2E2E2E2E2E2E2E2E2E2E2E2E2E2E2E2E2E2E2E2E2E2E2E2E2E2E2E2E2E2E2E2F5F5F5F5F5F5F5F5F5F5F5F5F5F5F5F5F5F5E2E2E2E2E2E2E2E2E2E2E2E2E2E20FE2E2E2E2E2E2E2
310
E2E2E2E2E2E2E2E2E2E2E2E2E2E2E2E2E2E2E2E2E2E2E2E2E2E2E2E2E2E2E2E2E2E2E2E2E2E2E2E2E2E2E2E2E2E2E2E2E2E2E2E2E2E2E2E2E2E2E2E2E2E2E2E2E2E2E2E2E2E2E2E2E2E2E2E2E2E2E2E2E2E2E2E2E2E2E2E2E2E2E2E2E2E2E2E2E2E2E2E2E2E2E2E2E2E2E2E2E2E2E2E2E2E2E2E2E2E2E2E2E2E2E2E2E2E2E2
310
E2E2E2E2E2E2E2E2E2E2E2E2E2E2E2E2E2E2E2E2E2E2E2E2E2E2E2E2E2E2E2E2E2E2E2E2E2E2E2E2E2E2E2E2E20FE2E2E2E2E2E2E2E2E2E2E2E2E2E2E2E2E2E2E2E2E2E2E2E2E2E2E2E2E2E2E2E2E2E2E2E2E2E2E2E2E2E2E2E2E2E2E2E2E2E2E2E2E2E2E2E2E2E2E2E2E2E2E2E2E2E2E2E2E2E2E2E2E2E2E2E2E2E2E2E2E2
310
E2E2E2E2E2E2E2E2E2E2E2E2E2E2E2E2E2E2E2E2E2E2E2E2E2E2E2E2E2E2E2E2E2E2E2E2E2E2E2E2E2E2E2E2E2E2E2E2E2E2E2E2E2E2E2E2E2E2E2E2E2E2E2E2E2E2E2E2E2E2E2E2E2E2E2E2E2E2E2E2E2E2E2E2E2E2E2E2E2E2E2E2E2E2E2E2E2E20FE2E2E2E2E2E2E2E2E2E2E2E2E2E2E2E2E2E2E2E2E2E2E2E2E2E2E2E2
310
E2E2E2E2E2E2E2E2E2E2E2E2E2E2E2E2E2E2E2E2E2E2E2E2E2E2E2E2E2E2E2E2E2E2E2E2E2E2E2E2E2E2E2E2E2E2E2E2E2E2E2E2E2E2E2E2E2E2E2E2E2E2E2E2E2E2E2E2E2E2E2E2E2E2E2E2E2E2E2E2E2E2E2E2E2E2E2E2E2E2E2E2E2E2E2E2E2E2E2E2E2E2E2E2E2E2E2E2E2E2E2E2E2E2E2E2E2E2E2E2E2E2E2E2E2E2E2
310
E2E2E2E2E2E2E2E2E2E2E2E2E2E2E2E2E2E2E2E2E2E2E2E20FE2E2E2E2E2E2E2E2E2E2E2E2E2E2E2E2E2E2E2E2E2E2E2E2E2E2E2E2E2E2E2E2E2E2E2E2E2E2E2E2E2E2E2E2E2E2E2E2E2E2E2E2E2E2E2E2E2E2E2E2E2E2E2E2E2E2E2E2E2E2E2E2E2E2E2E2E2E2E2E2E2E2E2E2E2E2E2E2E2E2E2E2E2E2E2E2E2E2E2E2E2E2
310
E2E2E2E2E2E2E2E2E2E2E2E2E2E2E2E2E2E2E2E2E2E2E2E2E2E2E2E2E2E2E2E2E2E2E2E2E2E2E2E2E2E2E2E2E2E2E2E2E2E2E2E2E2E2E2E2E2E2E2E2E2E2E2E2E2E2E2E2E2E2E2E2E2E2E2E2E20FE2E2E2E2E2E2E2E2E2E2E2E2E2E2E2E2E2E2E2E2E2E2E2E2E2E2E2E2E2E2E2E2E2E2E2E2E2E2E2E2E2E2E2E2E2E2E2E2E2
310
E2E2E2E2E2E2E2E2E2E2E2E2E2E2E2E2E2E2E2E2E2E2E2E2E2E2E2E2E2E2E2E2E2E2E2E2E2E2E2E2E2E2E2E2E2E2E2E2E2E2E2E2E2E2E2E2E2E2E2E2E2E2E2E2E2E2E2E2E2E2E2E2E2E2E2E2E2E2E2E2E2E2E2E2E2E2E2E2E2E2E2E2E2E2E2E2E2E2E2E2E2E2E2E2E2E2E2E2E2E2E2E2E2E2E2E2E2E2E2E2E2E2E2E2E2E2E2
310
E2E2E20FE2E2E2E2E2E2E2E2E2E2E2E2E2E2E2E2E2E2E2E2E2E2E2E2E2E2E2E2E2E2E2E2E2E2E2E2E2E2E2E2E2E2E2E2E2E2E2E2E2E2E2E2E2E2E2E2E2E2E2E2E2E2E2E2E2E2E2E2E2E2E2E2E2E2E2E2E2E2E2E2E2E2E2E2E2E2E2E2E2E2E2E2E2E2E2E2E2E2E2E2E2E2E2E2E2E2E2E2E2E2E2E2E2E2E2E2E2E2E2E2E2E2E2
310
E2E2E2E2E2E2E2E2E2E2E2E2E2E2E2E2E2E2E2E2E2E2E2E2E2E2E2E2E2E2E2E2E2E2E2E2E2E2E2E2E2E2E2E2E2E2E2E2E2E2E2E2E2E2E2E20FE2E2E2E2E2E2E2E2E2E2E2E2E2E2E2E2E2E2E2E2E2E2E2E2E2E2E2E2E2E2E2E2E2E2E2E2E2E2E2E2E2E2E2E2E2E2E2E2E2E2E2E2E2E2E2E2E2E2E2E2E2E2E2E2E2E2E2E2E2E2
310
E2E2E2E2E2E2E2E2E2E2E2E2E2E2E2E2E2E2E2E2E2E2E2E2E2E2E2E2E2E2E2E2E2E2E2E2E2E2E2E2E2E2E2E2E2E2E2E2E2E2E2E2E2E2E2E2E2E2E2E2E2E2E2E2E2E2E2E2E2E2E2E2E2E2E2E2E2E2E2E2E2E2E2E2E2E2E2E2E2E2E2E2E2E2E2E2E2E2E2E2E2E2E2E2E2E2E2E2E20FE2E2E2E2E2E2E2E2E2E2E2E2E2E2E2E2E2
310
E2E2E2E2E2E2E2E2E2E2E2E2E2E2E2E2E2E2E2E2E2E2E2E2E2E2E2E2E2E2E2E2E2E2E2E2E2E2E2E2E2E2E2E2E2E2E2E2E2E2E2E2E2E2E2E2E2E2E2E2E2E2E2E2E2E2E2E2E2E2E2E2E2E2E2E2E2E2E2E2E2E2E2E2E2E2E2E2E2E2E2E2E2E2E2E2E2E2E2E2E2E2E2E2E2E2E2E2E2E2E2E2E2E2E2E2E2E2E2E2E2E2E2E2E2E2E2
310
E2E2E2E2E2E2E2E2E2E2E2E2E2E2E2E2E2E2E2E2E2E2E2E2E2E2E2E2E2E2E2E2E2E2E20FE2E2E2E2E2E2E2E2E2E2E2E2E2E2E2E2E2E2E2E2E2E2E2E2E2E2E2E2E2E2E2E2E2E2E2E2E2E2E2E2E2E2E2E2E2E2E2E2E2E2E2E2E2E2E2E2E2E2E2E2E2E2E2E2E2E2E2E2E2E2E2E2E2E2E2E2E2E2E2E2E2E2E2E2E2E2E2E2E2E2E2
310
E2E2E2E2E2E2E2E2E2E2E2E2E2E2E2E2E2E2E2E2E2E2E2E2E2E2E2E2E2E2E2E2E2E2E2E2E2E2E2E2E2E2E2E2E2E2E2E2E2E2E2E2E2E2E2E2E2E2E2E2E2E2E2E2E2E2E2E2E2E2E2E2E2E2E2E2E2E2E2E2E2E2E2E2E2E2E2E20FE2E2E2E2E2E2E2E2E2E2E2E2E2E2E2E2E2E2E2E2E2E2E2E2E2E2E2E2E2E2E2E2E2E2E2E2E2E2
310
E2E2E2E2E2E2E2E2E2E2E2E2E2E2E2E2E2E2E2E2E2E2E2E2E2E2E2E2E2E2E2E2E2E2E2E2E2E2E2E2E2E2E2E2E2E2E2E2E2E2E2E2E2E2E2E2E2E2E2E2E2E2E2E2E2E2E2E2E2E2E2E2E2E2E2E2E2E2E2E2E2E2E2E2E2E2E2E2E2E2E2E2E2E2E2E2E2E2E2E2E2E2E2E2E2E2E2E2E2E2E2E2E2E2E2E2E2E2E2E2E2E2E2E2E2E2E2
310
E2E2E2E2E2E2E2E2E2E2E2E2E2E20FE2E2E2E2E2E2E2E2E2E2E2E2E2E2E2E2E2E2E2E2E2E2E2E2E2E2E2E2E2E2E2E2E2E2E2E2E2E2E2E2E2E2E2E2E2E2E2E2E2E2E2E2E2E2E2E2E2E2E2E2E2E2E2E2E2E2E2E2E2E2E2E2E2E2E2E2E2E2E2E2E2E2E2E2E2E2E2E2E2E2E2E2E2E2E2E2E2E2E2E2E2E2E2E2E2E2E2E2E2E2E2E2
310
E2E2E2E2E2E2E2E2E2E2E2E2E2E2E2E2E2E2E2E2E2E2E2E2E2E2E2E2E2E2E2E2E2E2E2E2E2E2E2E2E2E2E2E2E2E2E2E2E2E2E2E2E2E2E2E2E2E2E2E2E2E2E2E2E2E2E20FE2E2E2E2E2E2E2E2E2E2E2E2E2E2E2E2E2E2E2E2E2E2E2E2E2E2E2E2E2E2E2E2E2E2E2E2E2E2E2E2E2E2E2E2E2E2E2E2E2E2E2E2E2E2E2E2E2E2E2
310
E2E2E2E2E2E2E2E2E2E2E2E2E2E2E2E2E2E2E2E2E2E2E2E2E2E2E2E2E2E2E2E2E2E2E2E2E2E2E2E2E2E2E2E2E2E2E2E2E2E2E2E2E2E2E2E2E2E2E2E2E2E2E2E2E2E2E2E2E2E2E2E2E2E2E2E2E2E2E2E2E2E2E2E2E2E2E2E2E2E2E2E2E2E2E2E2E2E2E2E2E2E2E2E2E2E2E2E2E2E2E2E2E2E2E2E2E2E2E2E20FE2E2E2E2E2E2
310
E2E2E2E2E2E2E2E2E2E2E2E2E2E2E2E2E2E2E2E2E2E2E2E2E2E2E2E2E2E2E2E2E2E2E2E2E2E2E2E2E2E2E2E2E2E2E2E2E2E2E2E2E2E2E2E2E2E2E2E2E2E2E2E2E2E2E2E2E2E2E2E2E2E2E2E2E2E2E2E2E2E2E2E2E2E2E2E2E2E2E2E2E2E2E2E2E2E2E2E2E2E2E2E2E2E2E2E2E2E2E2E2E2E2E2E2E2E2E2E2E2E2E2E2E2E2E2
310
E2E2E2E2E2E2E2E2E2E2E2E2E2E2E2E2E2E2E2E2E2E2E2E2E2E2E2E2E2E2E2E2E2E2E2E2E2E2E2E2E2E2E2E2E2E20FE2E2E2E2E2E2E2E2E2E2E2E2E2E2E2E2E2E2E2E2E2E2E2E2E2E2E2E2E2E2E2E2E2E2E2E2E2E2E2E2E2E2E2E2E2E2E2E2E2E2E2E2E2E2E2E2E2E2E2E2E2E2E2E2E2E2E2E2E2E2E2E2E2E2E2E2E2E2E2E2
310
E2E2E2E2E2E2E2E2E2E2E2E2E2E2E2E2E2E2E2E2E2E2E2E2E2E2E2E2E2E2E2E2E2E2E2E2E2E2E2E2E2E2E2E2E2E2E2E2E2E2E2E2E2E2E2E2E2E2E2E2E2E2E2E2E2E2E2E2E2E2E2E2E2E2E2E2E2E2E2E2E2E2E2E2E2E2E2E2E2E2E2E2E2E2E2E2E2E2E20FE2E2E2E2E2E2E2E2E2E2E2E2E2E2E2E2E2E2E2E2E2E2E2E2E2E2E2
310
E2E2E2E2E2E2E2E2E2E2E2E2E2E2E2E2E2E2E2E2E2E2E2E2E2E2E2E2E2E2E2E2E2E2E2E2E2E2E2E2E2E2E2E2E2E2E2E2E2E2E2E2E2E2E2E2E2E2E2E2E2E2E2E2E2E2E2E2E2E2E2E2E2E2E2E2E2E2E2E2E2E2E2E2E2E2E2E2E2E2E2E2E2E2E2E2E2E2E2E2E2E2E2E2E2E2E2E2E2E2E2E2E2E2E2E2E2E2E2E2E2E2E2E2E2E2E2
310
E2E2E2E2E2E2E2E2E2E2E2E2E2E2E2E2E2E2E2E2E2E2E2E2E20FE2E2E2E2E2E2E2E2E2E2E2E2E2E2E2E2E2E2E2E2E2E2E2E2E2E2E2E2E2E2E2E2E2E2E2E2E2E2E2E2E2E2E2E2E2E2E2E2E2E2E2E2E2E2E2E2E2E2E2E2E2E2E2E2E2E2E2E2E2E2E2E2E2E2E2E2E2E2E2E2E2E2E2E2E2E2E2E2E2E2E2E2E2E2E2E2E2E2E2E2E2
310
E2E2E2E2E2E2E2E2E2E2E2E2E2E2E2E2E2E2E2E2E2E2E2E2E2E2E2E2E2E2E2E2E2E2E2E2E2E2E2E2E2E2E2E2E2E2E2E2E2E2E2E2E2E2E2E2E2E2E2E2E2E2E2E2E2E2E2E2E2E2E2E2E2E2E2E2E2E20FE2E2E2E2E2E2E2E2E2E2E2E2E2E2E2E2E2E2E2E2E2E2E2E2E2E2E2E2E2E2E2E2E2E2E2E2E2E2E2E2E2E2E2E2E2E2E2E2
310
E2E2E2E2E2E2E2E2E2E2E2E2E2E2E2E2E2E2E2E2E2E2E2E2E2E2E2E2E2E2E2E2E2E2E2E2E2E2E2E2E2E2E2E2E2E2E2E2E2E2E2E2E2E2E2E2E2E2E2E2E2E2E2E2E2E2E2E2E2E2E2E2E2E2E2E2E2E2E2E2E2E2E2E2E2E2E2E2E2E2E2E2E2E2E2E2E2E2E2E2E2E2E2E2E2E2E2E2E2E2E2E2E2E2E2E2E2E2E2E2E2E2E2E2E2E2E2
310
E2E2E2E20FE2E2E2E2E2E2E2E2E2E2E2E2E2E2E2E2E2E2E2E2E2E2E2E2E2E2E2E2E2E2E2E2E2E2E2E2E2E2E2E2E2E2E2E2E2E2E2E2E2E2E2E2E2E2E2E2E2E2E2E2E2E2E2E2E2E2E2E2E2E2E2E2E2E2E2E2E2E2E2E2E2E2E2E2E2E2E2E2E2E2E2E2E2E2E2E2E2E2E2E2E2E2E2E2E2E2E2E2E2E2E2E2E2E2E2E2E2E2E2E2E2E2
310
E2E2E2E2E2E2E2E2E2E2E2E2E2E2E2E2E2E2E2E2E2E2E2E2E2E2E2E2E2E2E2E2E2E2E2E2E2E2E2E2E2E2E2E2E2E2E2E2E2E2E2E2E2E2E2E2E20FE2E2E2E2E2E2E2E2E2E2E2E2E2E2E2E2E2E2E2E2E2E2E2E2E2E2E2E2E2E2E2E2E2E2E2E2E2E2E2E2E2E2E2E2E2E2E2E2E2E2E2E2E2E2E2E2E2E2E2E2E2E2E2E2E2E2E2E2E2
310
E2E2E2E2E2E2E2E2E2E2E2E2E2E2E2E2E2E2E2E2E2E2E2E2E2E2E2E2E2E2E2E2E2E2E2E2E2E2E2E2E2E2E2E2E2E2E2E2E2E2E2E2E2E2E2E2E2E2E2E2E2E2E2E2E2E2E2E2E2E2E2E2E2E2E2E2E2E2E2E2E2E2E2E2E2E2E2E2E2E2E2E2E2E2E2E2E2E2E2E2E2E2E2E2E2E2E2E2E2E20FE2E2E2E2E2E2E2E2E2E2E2E2E2E2E2E2
310
E2E2E2E2E2E2E2E2E2E2E2E2E2E2E2E2E2E2E2E2E2E2E2E2E2E2E2E2E2E2E2E2E2E2E2E2E2E2E2E2E2E2E2E2E2E2E2E2E2E2E2E2E2E2E2E2E2E2E2E2E2E2E2E2E2E2E2E2E2E2E2E2E2E2E2E2E2E2E2E2E2E2E2E2E2E2E2E2E2E2E2E2E2E2E2E2E2E2E2E2E2E2E2E2E2E2E2E2E2E2E2E2E2E2E2E2E2E2E2E2E2E2E2E2E2E2E2
310
E2E2E2E2E2E2E2E2E2E2E2E2E2E2E2E2E2E2E2E2E2E2E2E2E2E2E2E2E2E2E2E2E2E2E2E20FE2E2E2E2E2E2E2E2E2E2E2E2E2E2E2E2E2E2E2E2E2E2E2E2E2E2E2E2E2E2E2E2E2E2E2E2E2E2E2E2E2E2E2E2E2E2E2E2E2E2E2E2E2E2E2E2E2E2E2E2E2E2E2E2E2E2E2E2E2E2E2E2E2E2E2E2E2E2E2E2E2E2E2E2E2E2E2E2E2E2
310
E2E2E2E2E2E2E2E2E2E2E2E2E2E2E2E2E2E2E2E2E2E2E2E2E2E2E2E2E2E2E2E2E2E2E2E2E2E2E2E2E2E2E2E2E2E2E2E2E2E2E2E2E2E2E2E2E2E2E2E2E2E2E2E2E2E2E2E2E2E2E2E2E2E2E2E2E2E2E2E2E2E2E2E2E2E2E2E2E20FE2E2E2E2E2E2E2E2E2E2E2E2E2E2E2E2E2E2E2E2E2E2E2E2E2E2E2E2E2E2E2E2E2E2E2E2E2
310
E2E2E2E2E2E2E2E2E2E2E2E2E2E2E2E2E2E2E2E2E2E2E2E2E2E2E2E2E2E2E2E2E2E2E2E2E2E2E2E2E2E2E2E2E2E2E2E2E2E2E2E2E2E2E2E2E2E2E2E2E2E2E2E2E2E2E2E2E2E2E2E2E2E2E2E2E2E2E2E2E2E2E2E2E2E2E2E2E2E2E2E2E2E2E2E2E2E2E2E2E2E2E2E2E2E2E2E2E2E2E2E2E2E2E2E2E2E2E2E2E2E2E2E2E2E2E2
310
E2E2E2E2E2E2E2E2E2E2E2E2E2E2E20FE2E2E2E2E2E2E2E2E2E2E2E2E2E2E2E2E2E2E2E2E2E2E2E2E2E2E2E2E2E2E2E2E2E2E2E2E2E2E2E2E2E2E2E2E2E2E2E2E2E2E2E2E2E2E2E2E2E2E2E2E2E2E2E2E2E2E2E2E2E2E2E2E2E2E2E2E2E2E2E2E2E2E2E2E2E2E2E2E2E2E2E2E2E2E2E2E2E2E2E2E2E2E2E2E2E2E2E2E2E2E2
310
E2E2E2E2E2E2E2E2E2E2E2E2E2E2E2E2E2E2E2E2E2E2E2E2E2E2E2E2E2E2E2E2E2E2E2E2E2E2E2E2E2E2E2E2E2E2E2E2E2E2E2E2E2E2E2E2E2E2E2E2E2E2E2E2E2E2E2E20FE2E2E2E2E2E2E2E2E2E2E2E2E2E2E2E2E2E2E2E2E2E2E2E2E2E2E2E2E2E2E2E2E2E2E2E2E2E2E2E2E2E2E2E2E2E2E2E2E2E2E2E2E2E2E2E2E2E2
310
E2E2E2E2E2E2E2E2E2E2E2E2E2E2E2E2E2E2E2E2E2E2E2E2E2E2E2E2E2E2E2E2E2E2E2E2E2E2E2E2E2E2E2E2E2E2E2E2E2E2E2F5E2E2E2E2E2E2E2E2E2E2E2E2E2E2E2E2E2E2E2E2E2E2E2E2E2E2E2E2E2E2E2E2E2E2E2E2E2E2E2E2E2E2E2E2E2E2E2E2E2E2E2E2E2E2E2E2E2E2E2E2E2E2E2E2E2E2E2E2E20FE2E2E2E2E2
310
E2E2E2E2E2E2E2E2E2E2E2E2E2E2E2E2E2E2E2E2E2E2E2E2E2E2E2E2E2E2E2E2E2E2E2E2E2E2E2E2E2E2E2E2E2E2E2E2E2E2E2E2E2E2E2E2E2E2E2E2E2E2E2E2E2E2E2E2E2E2E2E2E2E2E2E2E2E2E2E2E2E2E2E2E2E2E2E2E2E2E2E2E2E2E2E2E2E2E2E2E2E2E2E2E2F5F5E2E2E2E2E2E2E2E2E2E2E2E2E2E2E2E2E2E2E2E2
310
E2E2E2E2E2E2E2E2E2E2E2E2E2E2E2E2E2E2E2E2E2E2E2E2E2E2E2E2E2E2E2E2E2E2E2E2E2E2E2E2E2E2E2E2E2E2E20FE2E2E2E2E2E2E2E2E2E2E2E2E2E2E2E2E2E2E2E2E2E2E2E2E2E2E2E2E2E2E2E2E2E2E2E2E2E2E2E2E2E2E2E2E2E2E2E2E2E2E2E2E2E2E2E2E2E2E2E2E2E2E2E2E2E2E2E2E2E2E2E2E2E2E2E2E2E2E2
310
E2E2E2E2E2E2E2E2E2E2E2E2E2E2E2E2E2E2E2E2E2E2E2E2E2E2E2E2E2E2E2E2E2F5E2E2E2E2E2E2E2E2E2E2E2E2E2E2E2E2E2E2E2E2E2E2E2E2E2E2E2E2E2E2E2E2E2E2E2E2E2E2E2E2E2E2E2E2E2E2E2E2E2E2E2E2E2E2E2E2E2E2E2E2E2E2E2E2E2E20FE2E2E2E2E2E2E2E2E2E2E2E2E2E2E2E2E2E2E2E2E2E2E2E2E2E2
310
E2E2E2E2E2E2E2E2E2E2E2E2E2E2E2E2E2E2E2E2E2E2E2E2E2E2E2E2E2E2E2E2E2E2E2E2E2E2E2E2E2E2E2E2E2E2E2E2E2E2E2E2E2E2E2E2E2E2E2E2E2E2E2E2E2E2E2E2E2E2E2E2E2E2E2E2E2E2E2E2E2E2E2F5E2E2F5E2E2E2E2E2E2E2E2E2E2E2E2E2E2E2E2E2E2E2E2E2E2E2E2E2E2E2E2E2E2E2E2E2E2E2E2E2E2E2E2
310
E2E2E2E2E2E2E2E2E2E2E2E2E2E2E2E2E2E2E2E2E2E2E2E2E2E20FE2E2E2E2E2E2E2E2E2E2E2E2E2E2E2E2E2E2E2E2E2E2E2E2E2E2E2E2E2E2E2E2E2E2E2E2E2E2E2E2E2E2E2E2E2E2E2E2E2E2E2E2E2E2E2E2E2E2E2E2E2E2E2E2E2E2E2E2E2E2E2E2E2E2E2E2E2E2E2E2E2E2E2E2E2E2E2E2E2E2E2E2E2E2E2E2E2E2E2E2
310
E2E2E2E2E2E2E2E2E2E2F5E2E2F5E2E2E2E2E2E2E2E2E2E2E2E2E2E2E2E2E2E2E2E2E2E2E2E2E2E2E2E2E2E2E2E2E2E2E2E2E2E2E2E2E2E2E2E2E2E2E2E2E2E2E2E2E2E2E2E2E2E2E2E2E2E2E2E2E20FE2E2E2E2E2E2E2E2E2E2E2E2E2E2E2E2E2E2E2E2E2E2E2E2E2E2E2E2E2E2E2E2E2E2E2E2E2E2E2E2E2E2E2E2E2E2E2
310
E2E2E2E2E2E2E2E2E2E2E2E2E2E2E2E2E2E2E2E2E2E2E2E2E2E2E2E2E2E2E2E2E2E2E2E2E2E2E2E2E2E2E2E2E2E2E2E2E2E2E2E2E2E2E2E2E2E2E2E2E2E2E2F5E2E2E2F5E2E2E2E2E2E2E2E2E2E2E2E2E2E2E2E2E2E2E2E2E2E2E2E2E2E2E2E2E2E2E2E2E2E2E2E2E2E2E2E2E2E2E2E2E2E2E2E2E2E2E2E2E2E2E2E2E2E2E2
310
E2E2E2E2E20FE2E2E2E2E2E2E2E2E2E2E2E2E2E2E2E2E2E2E2E2E2E2E2E2E2E2E2E2E2E2E2E2E2E2E2E2E2E2E2E2E2E2E2E2E2E2E2E2E2E2E2E2E2E2E2E2E2E2E2E2E2E2E2E2E2E2E2E2E2E2E2E2E2E2E2E2E2E2E2E2E2E2E2E2E2E2E2E2E2E2E2E2E2E2E2E2E2E2E2E2E2E2E2E2E2E2E2E2E2E2E2F5E2E2F5E2E2E2E2E2E2
310
E2E2E2E2E2E2E2E2E2E2E2E2E2E2E2E2E2E2E2E2E2E2E2E2E2E2E2E2E2E2E2E2E2E2E2E2E2E2E2E2E2E2E2E2E2E2E2E2E2E2E2E2E2E2E2E2E2E20FE2E2E2E2E2E2E2E2E2E2E2E2E2E2E2E2E2E2E2E2E2E2E2E2E2E2E2E2E2E2E2E2E2E2E2E2E2E2E2E2E2E2E2E2E2E2E2E2E2E2E2E2E2E2E2E2E2E2E2E2E2E2E2E2E2E2E2E2
310
E2E2E2E2E2E2E2E2E2E2E2E2E2E2E2E2E2E2E2E2E2E2E2E2E2E2E2E2E2E2E2E2E2E2E2E2E2E2E2E2E2E2E2F5E2E2F5E2E2E2E2E2E2E2E2E2E2E2E2E2E2E2E2E2E2E2E2E2E2E2E2E2E2E2E2E2E2E2E2E2E2E2E2E2E2E2E2E2E2E2E2E2E2E2E2E2E2E2E2E2E2E2E2E2E2E2E2E2E2E2E20FE2E2E2E2E2E2E2E2E2E2E2E2E2E2E2
310
E2E2E2E2E2E2E2E2E2E2E2E2E2E2E2E2E2E2E2E2E2E2E2E2E2E2E2E2E2E2E2E2E2E2E2E2E2E2E2E2E2E2E2E2E2E2E2E2E2E2E2E2E2E2E2E2E2E2E2E2E2E2E2E2E2E2E2E2E2E2E2E2E2E2E2E2E2E2E2E2E2E2E2E2E2E2E2E2E2E2E2E2E2E2E2E2F5E2E2F5E2E2E2E2E2E2E2E2E2E2E2E2E2E2E2E2E2E2E2E2E2E2E2E2E2E2E2
310
E2E2E2E2E2E2E2E2E2E2E2E2E2E2E2E2E2E2E2E2E2E2E2E2E2E2E2E2E2E2E2E2E2E2E2E2E20FE2E2E2E2E2E2E2E2E2E2E2E2E2E2E2E2E2E2E2E2E2E2E2E2E2E2E2E2E2E2E2E2E2E2E2E2E2E2E2E2E2E2E2E2E2E2E2E2E2E2E2E2E2E2E2E2E2E2E2E2E2E2E2E2E2E2E2E2E2E2E2E2E2E2E2E2E2E2E2E2E2E2E2E2E2E2E2E2E2
310
E2E2E2E2E2E2E2E2E2E2E2E2E2E2E2E2E2E2E2E2E2E2F5E2E2F5E2E2E2E2E2E2E2E2E2E2E2E2E2E2E2E2E2E2E2E2E2E2E2E2E2E2E2E2E2E2E2E2E2E2E2E2E2E2E2E2E2E2E2E2E2E2E2E2E2E2E2E2E2E2E2E2E2E2E2E2E2E2E2E20FE2E2E2E2E2E2E2E2E2E2E2E2E2E2E2E2E2E2E2E2E2E2E2E2E2E2E2E2E2E2E2E2E2E2E2E2
310
E2E2E2E2E2E2E2E2E2E2E2E2E2E2E2E2E2E2E2E2E2E2E2E2E2E2E2E2E2E2E2E2E2E2E2E2E2E2E2E2E2E2E2E2E2E2E2E2E2E2E2E2E2E2E2E2E2E2E2E2E2E2E2E2E2E2E2E2E2E2E2E2E2E2E2F5E2E2F5E2E2E2E2E2E2E2E2E2E2E2E2E2E2E2E2E2E2E2E2E2E2E2E2E2E2E2E2E2E2E2E2E2E2E2E2E2E2E2E2E2E2E2E2E2E2E2E2
310
E2E2E2E2E2E2E2E2E2E2E2E2E2E2E2E20FE2E2E2E2E2E2E2E2E2E2E2E2E2E2E2E2E2E2E2E2E2E2E2E2E2E2E2E2E2E2E2E2E2E2E2E2E2E2E2E2E2E2E2E2E2E2E2E2E2E2E2E2E2E2E2E2E2E2E2E2E2E2E2E2E2E2E2E2E2E2E2E2E2E2E2E2E2E2E2E2E2E2E2E2E2E2E2E2E2E2E2E2E2E2E2E2E2E2E2E2E2E2E2E2E2E2E2E2E2E2
310
E2F5E2E2F5E2E2E2E2E2E2E2E2E2E2E2E2E2E2E2E2E2E2E2E2E2E2E2E2E2E2E2E2E2E2E2E2E2E2E2E2E2E2E2E2E2E2E2E2E2E2E2E2E2E2E2E2E2E2E2E2E2E2E2E2E2E2E2E20FE2E2E2E2E2E2E2E2E2E2E2E2E2E2E2E2E2E2E2E2E2E2E2E2E2E2E2E2E2E2E2E2E2E2E2E2E2E2E2E2E2E2E2E2E2E2E2E2E2E2E2E2E2E2E2E2E2
310
E2E2E2E2E2E2E2E2E2E2E2E2E2E2E2E2E2E2E2E2E2E2E2E2E2E2E2E2E2E2E2E2E2E2E2E2E2E2E2E2E2E2E2E2E2E2E2E2E2E2E2E2E2E2F5E2E2F5E2E2E2E2E2E2E2E2E2E2E2E2E2E2E2E2E2E2E2E2E2E2E2E2E2E2E2E2E2E2E2E2E2E2E2E2E2E2E2E2E2E2E2E2E2E2E2E2E2E2E2E2E2E2E2E2E2E2E2E2E2E2E2E20FE2E2E2E2
310
E2E2E2E2E2E2E2E2E2E2E2E2E2E2E2E2E2E2E2E2E2E2E2E2E2E2E2E2E2E2E2E2E2E2E2E2E2E2E2E2E2E2E2E2E2E2E2E2E2E2E2E2E2E2E2E2E2E2E2E2E2E2E2E2E2E2E2E2E2E2E2E2E2E2E2E2E2E2E2E2E2E2E2E2E2E2E2E2E2E2E2E2E2E2E2E2E2E2E2E2E2E2E2E2E2E2F5E2E2E2F5E2E2E2E2E2E2E2E2E2E2E2E2E2E2E2E2
310
E2E2E2E2E2E2E2E2E2E2E2E2E2E2E2E2E2E2E2E2E2E2E2E2E2E2E2E2E2E2E2E2E2E2E2E2E2E2E2E2E2E2E2E2E2E2E2E20FE2E2E2E2E2E2E2E2E2E2E2E2E2E2E2E2E2E2E2E2E2E2E2E2E2E2E2E2E2E2E2E2E2E2E2E2E2E2E2E2E2E2E2E2E2E2E2E2E2E2E2E2E2E2E2E2E2E2E2E2E2E2E2E2E2E2E2E2E2E2E2E2E2E2E2E2E2E2
310
E2E2E2E2E2E2E2E2E2E2E2E2E2E2E2E2E2E2E2E2E2E2E2E2E2E2E2E2E2E2E2F5E2E2E2F5E2E2E2E2E2E2E2E2E2E2E2E2E2E2E2E2E2E2E2E2E2E2E2E2E2E2E2E2E2E2E2E2E2E2E2E2E2E2E2E2E2E2E2E2E2E2E2E2E2E2E2E2E2E2E2E2E2E2E2E2E2E2E2E2E20FE2E2E2E2E2E2E2E2E2E2E2E2E2E2E2E2E2E2E2E2E2E2E2E2E2
310
E2E2E2E2E2E2E2E2E2E2E2E2E2E2E2E2E2E2E2E2E2E2E2E2E2E2E2E2E2E2E2E2E2E2E2E2E2E2E2E2E2E2E2E2E2E2E2E2E2E2E2E2E2E2E2E2E2E2E2E2E2E2E2E2E2E2E2E2E2E2E2E2E2E2E2E2E2E2E2E2E2E2E2E2E2E2E2F5E2E2E2E2E2E2E2E2E2E2E2E2E2E2E2E2E2E2E2E2E2E2E2E2E2E2E2E2E2E2E2E2E2E2E2E2E2E2E2
310
E2E2E2E2E2E2E2E2E2E2E2E2E2E2E2E2E2E2E2E2E2E2E2E2E2E2E20FE2E2E2E2E2E2E2E2E2E2E2E2E2E2E2E2E2E2E2E2E2E2E2E2E2E2E2E2E2E2E2E2E2E2E2E2E2E2E2E2E2E2E2E2E2E2E2E2E2E2E2E2E2E2E2E2E2E2E2E2E2E2E2E2E2E2E2E2E2E2E2E2E2E2E2E2E2E2E2E2E2E2E2E2E2E2E2E2E2E2E2E2E2E2E2E2E2E2E2
310
E2E2E2E2E2E2E2E2E2E2E2E2E2F5E2E2E2E2E2E2E2E2E2E2E2E2E2E2E2E2E2E2E2E2E2E2E2E2E2E2E2E2E2E2E2E2E2E2E2E2E2E2E2E2E2E2E2E2E2E2E2E2E2E2E2E2E2E2E2E2E2E2E2E2E2E2E2E2E2E20FE2E2E2E2E2E2E2E2E2E2E2E2E2E2E2E2E2E2E2E2E2E2E2E2E2E2E2E2E2E2E2E2E2E2E2E2E2E2E2E2E2E2E2E2E2E2
310
E2E2E2E2E2E2E2E2E2E2E2E2E2E2E2E2E2E2E2E2E2E2E2E2E2E2E2E2E2E2E2E2E2E2E2E2E2E2E2E2E2E2E2E2E2E2E2E2E2E2E2E2E2E2E2E2E2E2E2E2E2E2E2E2E2F5E2E2E2E2E2E2E2E2E2E2E2E2E2E2E2E2E2E2E2E2E2E2E2E2E2E2E2E2E2E2E2E2E2E2E2E2E2E2E2E2E2E2E2E2E2E2E2E2E2E2E2E2E2E2E2E2E2E2E2E2E2
310
E2E2E2E2E2E20FE2E2E2E2E2E2E2E2E2E2E2E2E2E2E2E2E2E2E2E2E2E2E2E2E2E2E2E2E2E2E2E2E2E2E2E2E2E2E2E2E2E2E2E2E2E2E2E2E2E2E2E2E2E2E2E2E2E2E2E2E2E2E2E2E2E2E2E2E2E2E2E2E2E2E2E2E2E2E2E2E2E2E2E2E2E2E2E2E2E2E2E2E2E2E2E2E2E2E2E2E2E2E2E2E2E2E2E2E2F5F5E2E2E2E2E2E2E2E2E2
310
E2E2E2E2E2E2E2E2E2E2E2E2E2E2E2E2E2E2E2E2E2E2E2E2E2E2E2E2E2E2E2E2E2E2E2E2E2E2E2E2E2E2E2E2E2E2E2E2E2E2E2E2E2E2E2E2E2E2E20FE2E2E2E2E2E2E2E2E2E2E2E2E2E2E2E2E2E2E2E2E2E2E2E2E2E2E2E2E2E2E2E2E2E2E2E2E2E2E2E2E2E2E2E2E2E2E2E2E2E2E2E2E2E2E2E2E2E2E2E2E2E2E2E2E2E2E2
310
E2E2E2E2E2E2E2E2E2E2E2E2E2E2E2E2E2E2E2E2E2E2E2E2E2E2E2E2E2E2E2E2E2E2E2E2E2E2E2E2E2E2E2E2E2E2E2E2E2E2E2E2E2E2E2E2E2E2E2E2E2E2E2E2E2E2E2E2E2E2E2E2E2E2E2E2E2E2E2E2E2E2E2E2E2E2E2E2E2E2E2E2E2E2E2E2E2E2E2E2E2E2E2E2E2E2E2E2E2E2E2E20FE2E2E2E2E2E2E2E2E2E2E2E2E2E2
310
E2E2E2E2E2E2E2E2E2E2E2E2E2E2E2E2E2E2E2E2E2E2E2E2E2E2E2E2E2E2E2E2E2E2E2E2E2E2E2E2E2E2E2E2E2E2E2E2E2E2E2E2E2E2E2E2E2E2E2E2E2E2E2E2E2E2E2E2E2E2E2E2E2E2E2E2E2E2E2E2E2E2E2E2E2E2E2E2E2E2E2E2E2E2E2E2E2E2E2E2E2E2E2E2E2E2E2E2E2E2E2E2E2E2E2E2E2E2E2E2E2E2E2E2E2E2E2
310
E2E2E2E2E2E2E2E2E2E2E2E2E2E2E2E2E2E2E2E2E2E2E2E2E2E2E2E2E2E2E2E2E2E2E2E2E2E20FE2E2E2E2E2E2E2E2E2E2E2E2E2E2E2E2E2E2E2E2E2E2E2E2E2E2E2E2E2E2E2E2E2E2E2E2E2E2E2E2E2E2E2E2E2E2E2E2E2E2E2E2E2E2E2E2E2E2E2E2E2E2E2E2E2E2E2E2E2E2E2E2E2E2E2E2E2E2E2E2E2E2E2E2E2E2E2E2
310
E2E2E2E2E2E2E2E2E2E2E2E2E2E2E2E2E2E2E2E2E2E2E2E2E2E2E2E2E2E2E2E2E2E2E2E2E2E2E2E2E2E2E2E2E2E2E2E2E2E2E2E2E2E2E2E2E2E2E2E2E2E2E2E2E2E2E2E2E2E2E2E2E2E2E2E2E2E2E2E2E2E2E2E2E2E2E2E2E2E2E20FE2E2E2E2E2E2E2E2E2E2E2E2E2E2E2E2E2E2E2E2E2E2E2E2E2E2E2E2E2E2E2E2E2E2E2
310
E2E2E2E2E2E2E2E2E2E2E2E2E2E2E2E2E2E2E2E2E2E2E2E2E2E2E2E2E2E2E2E2E2E2E2E2E2E2E2E2E2E2E2E2E2E2E2E2E2E2E2E2E2E2E2E2E2E2E2E2E2E2E2E2E2E2E2E2E2E2E2E2E2E2E2E2E2E2E2E2E2E2E2E2E2E2E2E2E2E2E2E2E2E2E2E2E2E2E2E2E2E2E2E2E2E2E2E2E2E2E2E2E2E2E2E2E2E2E2E2E2E2E2E2E2E2E2
310
E2E2E2E2E2E2E2E2E2E2E2E2E2E2E2E2E20FE2E2E2E2E2E2E2E2E2E2E2E2E2E2E2E2E2E2E2E2E2E2E2E2E2E2E2E2E2E2E2E2E2E2E2E2E2E2E2E2E2E2E2E2E2E2E2E2E2E2E2E2E2E2E2E2E2E2E2E2E2E2E2E2E2E2E2E2E2E2E2E2E2E2E2E2E2E2E2E2E2E2E2E2E2E2E2E2E2E2E2E2E2E2E2E2E2E2E2E2E2E2E2E2E2E2E2E2E2
310
E2E2E2E2E2E2E2E2E2E2E2E2E2E2E2E2E2E2E2E2E2E2E2E2E2E2E2E2E2E2E2E2E2E2E2E2E2E2E2E2E2E2E2E2E2E2E2E2E2E2E2E2E2E2E2E2E2E2E2E2E2E2E2E2E2E2E2E2E2E20FE2E2E2E2E2E2E2E2E2E2E2E2E2E2E2E2E2E2E2E2E2E2E2E2E2E2E2E2E2E2E2E2E2E2E2E2E2E2E2E2E2E2E2E2E2E2E2E2E2E2E2E2E2E2E2E2
310
E2E2E2E2E2E2E2E2E2E2E2E2E2E2E2E2E2E2E2E2E2E2E2E2E2E2E2E2E2E2E2E2E2E2E2E2E2E2E2E2E2E2E2E2E2E2E2E2E2E2E2E2E2E2E2E2E2E2E2E2E2E2E2E2E2E2E2E2E2E2E2E2E2E2E2E2E2E2E2E2E2E2E2E2E2E2E2E2E2E2E2E2E2E2E2E2E2E2E2E2E2E2E2E2E2E2E2E2E2E2E2E2E2E2E2E2E2E2E2E2E2E2E20FE2E2E2
310
E2E2E2E2E2E2E2E2E2E2E2E2E2E2E2E2E2E2E2E2E2E2E2E2E2E2E2E2E2E2E2E2E2E2E2E2E2E2E2E2E2E2E2E2E2E2E2E2E2E2E2E2E2E2E2E2E2E2E2E2E2E2E2E2E2E2E2E2E2E2E2E2E2E2E2E2E2E2E2E2E2E2E2E2E2E2E2E2E2E2E2E2E2E2E2E2E2E2E2E2E2E2E2E2E2E2E2E2E2E2E2E2E2E2E2E2E2E2E2E2E2E2E2E2E2E2E2
310
E2E2E2E2E2E2E2E2E2E2E2E2E2E2E2E2E2E2E2E2E2E2E2E2E2E2E2E2E2E2E2E2E2E2E2E2E2E2E2E2E2E2E2E2E2E2E2E2E20FE2E2E2E2E2E2E2E2E2E2E2E2E2E2E2E2E2E2E2E2E2E2E2E2E2E2E2E2E2E2E2E2E2E2E2E2E2E2E2E2E2E2E2E2E2E2E2E2E2E2E2E2E2E2E2E2E2E2E2E2E2E2E2E2E2E2E2E2E2E2E2E2E2E2E2E2E2
310
E2E2E2E2E2E2E2E2E2E2E2E2E2E2E2E2E2E2E2E2E2E2E2E2E2E2E2E2E2E2E2E2E2E2E2E2E2E2E2E2E2E2E2E2E2E2E2E2E2E2E2E2E2E2E2E2E2E2E2E2E2E2E2E2E2E2E2E2E2E2E2E2E2E2E2E2E2E2E2E2E2E2E2E2E2E2E2E2E2E2E2E2E2E2E2E2E2E2E2E2E2E20FE2E2E2E2E2E2E2E2E2E2E2E2E2E2E2E2E2E2E2E2E2E2E2E2
310
E2E2E2E2E2E2E2E2E2E2E2E2E2E2E2E2E2E2E2E2E2E2E2E2E2E2E2E2E2E2E2E2E2E2E2E2E2E2E2E2E2E2E2E2E2E2E2E2E2E2E2E2E2E2E2E2E2E2E2E2E2E2E2E2E2E2E2E2E2E2E2E2E2E2E2E2E2E2E2E2E2E2E2E2E2E2E2E2E2E2E2E2E2E2E2E2E2E2E2E2E2E2E2E2E2E2E2E2E2E2E2E2E2E2E2E2E2E2E2E2E2E2E2E2E2E2E2
310
E2E2E2E2E2E2E2E2E2E2E2E2E2E2E2E2E2E2E2E2E2E2E2E2E2E2E2E20FE2E2E2E2E2E2E2E2E2E2E2E2E2E2E2E2E2E2E2E2E2E2E2E2E2E2E2E2E2E2E2E2E2E2E2E2E2E2E2E2E2E2E2E2E2E2E2E2E2E2E2E2E2E2E2E2E2E2E2E2E2E2E2E2E2E2E2E2E2E2E2E2E2E2E2E2E2E2E2E2E2E2E2E2E2E2E2E2E2E2E2E2E2E2E2E2E2E2
310
E2E2E2E2E2E2E2E2E2E2E2E2E2E2E2E2E2E2E2E2E2E2E2E2E2E2E2E2E2E2E2E2E2E2E2E2E2E2E2E2E2E2E2E2E2E2E2E2E2E2E2E2E2E2E2E2E2E2E2E2E2E2E2E2E2E2E2E2E2E2E2E2E2E2E2E2E2E2E2E2E20FE2E2E2E2E2E2E2E2E2E2E2E2E2E2E2E2E2E2E2E2E2E2E2E2E2E2E2E2E2E2E2E2E2E2E2E2E2E2E2E2E2E2E2E2E2
310
E2E2E2E2E2E2E2E2E2E2E2E2E2E2E2E2E2E2E2E2E2E2E2E2E2E2E2E2E2E2E2E2E2E2E2E2E2E2E2E2E2E2E2E2E2E2E2E2E2E2E2E2E2E2E2E2E2E2E2E2E2E2E2E2E2E2E2E2E2E2E2E2E2E2E2E2E2E2E2E2E2E2E2E2E2E2E2E2E2E2E2E2E2E2E2E2E2E2E2E2E2E2E2E2E2E2E2E2E2E2E2E2E2E2E2E2E2E2E2E2E2E2E2E2E2E2E2
310
E2E2E2E2E2E2E20FE2E2E2E2E2E2E2E2E2E2E2E2E2E2E2E2E2E2E2E2E2E2E2E2E2E2E2E2E2E2E2E2E2E2E2E2E2E2E2E2E2E2E2E2E2E2E2E2E2E2E2E2E2E2E2E2E2E2E2E2E2E2E2E2E2E2E2E2E2E2E2E2E2E2E2E2E2E2E2E2E2E2E2E2E2E2E2E2E2E2E2E2E2E2E2E2E2E2E2E2E2E2E2E2E2E2E2E2E2E2E2E2E2E2E2E2E2E2E2
310
E2E2E2E2E2E2E2E2E2E2E2E2E2E2E2E2E2E2E2E2E2E2E2E2E2E2E2E2E2E2E2E2E2E2E2E2E2E2E2E2E2E2E2E2E2E2E2E2E2E2E2E2E2E2E2E2E2E2E2E20FE2E2E2E2E2E2E2E2E2E2E2E2E2E2E2E2E2E2E2E2E2E2E2E2E2E2E2E2E2E2E2E2E2E2E2E2E2E2E2E2E2E2E2E2E2E2E2E2E2E2E2E2E2E2E2E2E2E2E2E2E2E2E2E2E2E2
310
E2E2E2E2E2E2E2E2E2E2E2E2E2E2E2E2E2E2E2E2E2E2E2E2E2E2E2E2E2E2E2E2E2E2E2E2E2E2E2E2E2E2E2E2E2E2E2E2E2E2E2E2E2E2E2E2E2E2E2E2E2E2E2E2E2E2E2E2E2E2E2E2E2E2E2E2E2E2E2E2E2E2E2E2E2E2E2E2E2E2E2E2E2E2E2E2E2E2E2E2E2E2E2E2E2E2E2E2E2E2E2E2E20FE2E2E2E2E2E2E2E2E2E2E2E2E2
310
E2E2E2E2E2E2E2E2E2E2E2E2E2E2E2E2E2E2E2E2E2E2E2E2E2E2E2E2E2E2E2E2E2E2E2E2E2E2E2E2E2E2E2E2E2E2E2E2E2E2E2E2E2E2E2E2E2E2E2E2E2E2E2E2E2E2E2E2E2E2E2E2E2E2E2E2E2E2E2E2E2E2E2E2E2E2E2E2E2E2E2E2E2E2E2E2E2E2E2E2E2E2E2E2E2E2E2E2E2E2E2E2E2E2E2E2E2E2E2E2E2E2E2E2E2E2E2
310
E2E2E2E2E2E2E2E2E2E2E2E2E2E2E2E2E2E2E2E2E2E2E2E2E2E2E2E2E2E2E2E2E2E2E2E2E2E2E20FE2E2E2E2E2E2E2E2E2E2E2E2E2E2E2E2E2E2E2E2E2E2E2E2E2E2E2E2E2E2E2E2E2E2E2E2E2E2E2E2E2E2E2E2E2E2E2E2E2E2E2E2E2E2E2E2E2E2E2E2E2E2E2E2E2E2E2E2E2E2E2E2E2E2E2E2E2E2E2E2E2E2E2E2E2E2E2
310
E2E2E2E2E2E2E2E2E2E2E2E2E2E2E2E2E2E2E2E2E2E2E2E2E2E2E2E2E2E2E2E2E2E2E2E2E2E2E2E2E2E2E2E2E2E2E2E2E2E2E2E2E2E2E2E2E2E2E2E2E2E2E2E2E2E2E2E2E2E2E2E2E2E2E2E2E2E2E2E2E2E2E2E2E2E2E2E2E2E2E2E20FE2E2E2E2E2E2E2E2E2E2E2E2E2E2E2E2E2E2E2E2E2E2E2E2E2E2E2E2E2E2E2E2E2E2
310
E2E2E2E2E2E2E2E2E2E2E2E2E2E2E2E2E2E2E2E2E2E2E2E2E2E2E2E2E2E2E2E2E2E2E2E2E2E2E2E2E2E2E2E2E2E2E2E2E2E2E2E2E2E2E2E2E2E2E2E2E2E2E2E2E2E2E2E2E2E2E2E2E2E2E2E2E2E2E2E2E2E2E2E2E2E2E2E2E2E2E2E2E2E2E2E2E2E2E2E2E2E2E2E2E2E2E2E2E2E2E2E2E2E2E2E2E2E2E2E2E2E2E2E2E2E2E2
310
E2E2E2E2E2E2E2E2E2E2E2E2E2E2E2E2E2E20FE2E2E2E2E2E2E2E2E2E2E2E2E2E2E2E2E2E2E2E2E2E2E2E2E2E2E2E2E2E2E2E2E2E2E2E2E2E2E2E2E2E2E2E2E2E2E2E2E2E2E2E2E2E2E2E2E2E2E2E2E2E2E2E2E2E2E2E2E2E2E2E2E2E2E2E2E2E2E2E2E2E2E2E2E2E2E2E2E2E2E2E2E2E2E2E2E2E2E2E2E2E2E2E2E2E2E2E2
310
E2E2E2E2E2E2E2E2E2E2E2E2E2E2E2E2E2E2E2E2E2E2E2E2E2E2E2E2E2E2E2E2E2E2E2E2E2E2E2E2E2E2E2E2E2E2E2E2E2E2E2E2E2E2E2E2E2E2E2E2E2E2E2E2E2E2E2E2E2E2E20FE2E2E2E2E2E2E2E2E2E2E2E2E2E2E2E2E2E2E2E2E2E2E2E2E2E2E2E2E2E2E2E2E2E2E2E2E2E2E2E2E2E2E2E2E2E2E2E2E2E2E2E2E2E2E2
310
E2E2E2E2E2E2E2E2E2E2E2E2E2E2E2E2E2E2E2E2E2E2E2E2E2E2E2E2E2E2E2E2E2E2E2E2E2E2E2E2E2E2E2E2E2E2E2E2E2E2E2E2E2E2E2E2E2E2E2E2E2E2E2E2E2E2E2E2E2E2E2E2E2E2E2E2E2E2E2E2E2E2E2E2E2E2E2E2E2E2E2E2E2E2E2E2E2E2E2E2E2E2E2E2E2E2E2E2E2E2E2E2E2E2E2E2E2E2E2E2E2E2E2E20FE2E2
310
E2E2E2E2E2E2E2E2E2E2E2E2E2E2E2E2E2E2E2E2E2E2E2E2E2E2E2E2E2E2E2E2E2E2E2E2E2E2E2E2E2E2E2E2E2E2E2E2E2E2E2E2E2E2E2E2E2E2E2E2E2E2E2E2E2E2E2E2E2E2E2E2E2E2E2E2E2E2E2E2E2E2E2E2E2E2E2E2E2E2E2E2E2E2E2E2E2E2E2E2E2E2E2E2E2E2E2E2E2E2E2E2E2E2E2E2E2E2E2E2E2E2E2E2E2E2E2
310
E2E2E2E2E2E2E2E2E2E2E2E2E2E2E2E2E2E2E2E2E2E2E2E2E2E2E2E2E2E2E2E2E2E2E2E2E2E2E2E2E2E2E2E2E2E2E2E2E2E20FE2E2E2E2E2E2E2E2E2E2E2E2E2E2E2E2E2E2E2E2E2E2E2E2E2E2E2E2E2E2E2E2E2E2E2E2E2E2E2E2E2E2E2E2E2E2E2E2E2E2E2E2E2E2E2E2E2E2E2E2E2E2E2E2E2E2E2E2E2E2E2E2E2E2E2E2
310
E2E2E2E2E2E2E2E2E2E2E2E2E2E2E2E2E2E2E2E2E2E2E2E2E2E2E2E2E2E2E2E2E2E2E2E2E2E2E2E2E2E2E2E2E2E2E2E2E2E2E2E2E2E2E2E2E2E2E2E2E2E2E2E2E2E2E2E2E2E2E2E2E2E2E2E2E2E2E2E2E2E2E2E2E2E2E2E2E2E2E2E2E2E2E2E2E2E2E2E2E2E2E20FE2E2E2E2E2E2E2E2E2E2E2E2E2E2E2E2E2E2E2E2E2E2E2
310
E2E2E2E2E2E2E2E2E2E2E2E2E2E2E2E2E2E2E2E2E2E2E2E2E2E2E2E2E2E2E2E2E2E2E2E2E2E2E2E2E2E2E2E2E2E2E2E2E2E2E2E2E2E2E2E2E2E2E2E2E2E2E2E2E2E2E2E2E2E2E2E2E2E2E2E2E2E2E2E2E2E2E2E2E2E2E2E2E2E2E2E2E2E2E2E2E2E2E2E2E2E2E2E2E2E2E2E2E2E2E2E2E2E2E2E2E2E2E2E2E2E2E2E2E2E2E2
310
E2E2E2E2E2E2E2E2E2E2E2E2E2E2E2E2E2E2E2E2E2E2E2E2E2E2E2E2E20FE2E2E2E2E2E2E2E2E2E2E2E2E2E2E2E2E2E2E2E2E2E2E2E2E2E2E2E2E2E2E2E2E2E2E2E2E2E2E2E2E2E2E2E2E2E2E2E2E2E2E2E2E2E2E2E2E2E2E2E2E2E2E2E2E2E2E2E2E2E2E2E2E2E2E2E2E2E2E2E2E2E2E2E2E2E2E2E2E2E2E2E2E2E2E2E2E2
310
E2E2E2E2E2E2E2E2E2E2E2E2E2E2E2E2E2E2E2E2E2E2E2E2E2E2E2E2E2E2E2E2E2E2E2E2E2E2E2E2E2E2E2E2E2E2E2E2E2E2E2E2E2E2E2E2E2E2E2E2E2E2E2E2E2E2E2E2E2E2E2E2E2E2E2E2E2E2E2E2E2E20FE2E2E2E2E2E2E2E2E2E2E2E2E2E2E2E2E2E2E2E2E2E2E2E2E2E2E2E2E2E2E2E2E2E2E2E2E2E2E2E2E2E2E2E2
310
E2E2E2E2E2E2E2E2E2E2E2E2E2E2E2E2E2E2E2E2E2E2E2E2E2E2E2E2E2E2E2E2E2E2E2E2E2E2E2E2E2E2E2E2E2E2E2E2E2E2E2E2E2E2E2E2E2E2E2E2E2E2E2E2E2E2E2E2E2E2E2E2E2E2E2E2E2E2E2E2E2E2E2E2E2E2E2E2E2E2E2E2E2E2E2E2E2E2E2E2E2E2E2E2E2E2E2E2E2E2E2E2E2E2E2E2E2E2E2E2E2E2E2E2E2E2E2
310
E2E2E2E2E2E2E2E20FE2E2E2E2E2E2E2E2E2E2E2E2E2E2E2E2E2E2E2E2E2E2E2E2E2E2E2E2E2E2E2E2E2E2E2E2E2E2E2E2E2E2E2E2E2E2E2E2E2E2E2E2E2E2E2E2E2E2E2E2E2E2E2E2E2E2E2E2E2E2E2E2E2E2E2E2E2E2E2E2E2E2E2E2E2E2E2E2E2E2E2E2E2E2E2E2E2E2E2E2E2E2E2E2E2E2E2E2E2E2E2E2E2E2E2E2E2E2
310
E2E2E2E2E2E2E2E2E2E2E2E2E2E2E2E2E2E2E2E2E2E2E2E2E2E2E2E2E2E2E2E2E2E2E2E2E2E2E2E2E2E2E2E2E2E2E2E2E2E2E2E2E2E2E2E2E2E2E2E2E20FE2E2E2E2E2E2E2E2E2E2E2E2E2E2E2E2E2E2E2E2E2E2E2E2E2E2E2E2E2E2E2E2E2E2E2E2E2E2E2E2E2E2E2E2E2E2E2E2E2E2E2E2E2E2E2E2E2E2E2E2E2E2E2E2E2
310
E2E2E2E2E2E2E2E2E2E2E2E2E2E2E2E2E2E2E2E2E2E2E2E2E2E2E2E2E2E2E2E2E2E2E2E2E2E2E2E2E2E2E2E2E2E2E2E2E2E2E2E2E2E2E2E2E2E2E2E2E2E2E2E2E2E2E2E2E2E2E2E2E2E2E2E2E2E2E2E2E2E2E2E2E2E2E2E2E2E2E2E2E2E2E2E2E2E2E2E2E2E2E2E2E2E2E2E2E2E2E2E2E2E20FE2E2E2E2E2E2E2E2E2E2E2E2
310
E2E2E2E2E2E2E2E2E2E2E2E2E2E2E2E2E2E2E2E2E2E2E2E2E2E2E2E2E2E2E2E2E2E2E2E2E2E2E2E2E2E2E2E2E2E2E2E2E2E2E2E2E2E2E2E2E2E2E2E2E2E2E2E2E2E2E2E2E2E2E2E2E2E2E2E2E2E2E2E2E2E2E2E2E2E2E2E2E2E2E2E2E2E2E2E2E2E2E2E2E2E2E2E2E2E2E2E2E2E2E2E2E2E2E2E2E2E2E2E2E2E2E2E2E2E2E2
310
E2E2E2E2E2E2E2E2E2E2E2E2E2E2E2E2E2E2E2E2E2E2E2E2E2E2E2E2E2E2E2E2E2E2E2E2E2E2E2E20FE2E2E2E2E2E2E2E2E2E2E2E2E2E2E2E2E2E2E2E2E2E2E2E2E2E2E2E2E2E2E2E2E2E2E2E2E2E2E2E2E2E2E2E2E2E2E2E2E2E2E2E2E2E2E2E2E2E2E2E2E2E2E2E2E2E2E2E2E2E2E2E2E2E2E2E2E2E2E2E2E2E2E2E2E2E2
310
E2E2E2E2E2E2E2E2E2E2E2E2E2E2E2E2E2E2E2E2E2E2E2E2E2E2E2E2E2E2E2E2E2E2E2E2E2E2E2E2E2E2E2E2E2E2E2E2E2E2E2E2E2E2E2E2E2E2E2E2E2E2E2E2E2E2E2E2E2E2E2E2E2E2E2E2E2E2E2E2E2E2E2E2E2E2E2E2E2E2E2E2E20FE2E2E2E2E2E2E2E2E2E2E2E2E2E2E2E2E2E2E2E2E2E2E2E2E2E2E2E2E2E2E2E2E2
310
E2E2E2E2E2E2E2E2E2E2E2E2E2E2E2E2E2E2E2E2E2E2E2E2E2E2E2E2E2E2E2E2E2E2E2E2E2E2E2E2E2E2E2E2E2E2E2E2E2E2E2E2E2E2E2E2E2E2E2E2E2E2E2E2E2E2E2E2E2E2E2E2E2E2E2E2E2E2E2E2E2E2E2E2E2E2E2E2E2E2E2E2E2E2E2E2E2E2E2E2E2E2E2E2E2E2E2E2E2E2E2E2E2E2E2E2E2E2E2E2E2E2E2E2E2E2E2
310
E2E2E2E2E2E2E2E2E2E2E2E2E2E2E2E2E2E2E20FE2E2E2E2E2E2E2E2E2E2E2E2E2E2E2E2E2E2E2E2E2E2E2E2E2E2E2E2E2E2E2E2E2E2E2E2E2E2E2E2E2E2E2E2E2E2E2E2E2E2E2E2E2E2E2E2E2E2E2E2E2E2E2E2E2E2E2E2E2E2E2E2E2E2E2E2E2E2E2E2E2E2E2E2E2E2E2E2E2E2E2E2E2E2E2E2E2E2E2E2E2E2E2E2E2E2E2
310
E2E2E2E2E2E2E2E2E2E2E2E2E2E2E2E2E2E2E2E2E2E2E2E2E2E2E2E2E2E2E2E2E2E2E2E2E2E2E2E2E2E2E2E2E2E2E2E2E2E2E2E2E2E2E2E2E2E2E2E2E2E2E2E2E2E2E2E2E2E2E2E20FE2E2E2E2E2E2E2E2E2E2E2E2E2E2E2E2E2E2E2E2E2E2E2E2E2E2E2E2E2E2E2E2E2E2E2E2E2E2E2E2E2E2E2E2E2E2E2E2E2E2E2E2E2E2
310
E2E2E2E2E2E2E2E2E2E2E2E2E2E2E2E2E2E2E2E2E2E2E2E2E2E2E2E2E2E2E2E2E2E2E2E2E2E2E2E2E2E2E2E2E2E2E2E2E2E2E2E2E2E2E2E2E2E2E2E2E2E2E2E2E2E2E2E2E2E2E2E2E2E2E2E2E2E2E2E2E2E2E2E2E2E2E2E2E2E2E2E2E2E2E2E2E2E2E2E2E2E2E2E2E2E2E2E2E2E2E2E2E2E2E2E2E2E2E2E2E2E2E2E2E20FE2
310
E2E2E2E2E2E2E2E2E2E2E2E2E2E2E2E2E2E2E2E2E2E2E2E2E2E2E2E2E2E2E2E2E2E2E2E2E2E2E2E2E2E2E2E2E2E2E2E2E2E2E2E2E2E2E2E2E2E2E2E2E2E2E2E2E2E2E2E2E2E2E2E2E2E2E2E2E2E2E2E2E2E2E2E2E2E2E2E2E2E2E2E2E2E2E2E2E2E2E2E2E2E2E2E2E2E2E2E2E2E2E2E2E2E2E2E2E2E2E2E2E2E2E2E2E2E2E2
310
E2E2E2E2E2E2E2E2E2E2E2E2E2E2E2E2E2E2E2E2E2E2E2E2E2E2E2E2E2E2E2E2E2E2E2E2E2E2E2E2E2E2E2E2E2E2E2E2E2E2E20FE2E2E2E2E2E2E2E2E2E2E2E2E2E2E2E2E2E2E2E2E2E2E2E2E2E2E2E2E2E2E2E2E2E2E2E2E2E2E2E2E2E2E2E2E2E2E2E2E2E2E2E2E2E2E2E2E2E2E2E2E2E2E2E2E2E2E2E2E2E2E2E2E2E2E2
310
E2E2E2E2E2E2E2E2E2E2E2E2E2E2E2E2E2E2E2E2E2E2E2E2E2E2E2E2E2E2E2E2E2E2E2E2E2E2E2E2E2E2E2E2E2E2E2E2E2E2E2E2E2E2E2E2E2E2E2E2E2E2E2E2E2E2E2E2E2E2E2E2E2E2E2E2E2E2E2E2E2E2E2E2E2E2E2E2E2E2E2E2E2E2E2E2E2E2E2E2E2E2E2E20FE2E2E2E2E2E2E2E2E2E2E2E2E2E2E2E2E2E2E2E2E2E2
310
E2E2E2E2E2E2E2E2E2E2E2E2E2E2E2E2E2E2E2E2E2E2E2E2E2E2E2E2E2E2E2E2E2E2E2E2E2E2E2E2E2E2E2E2E2E2E2E2E2E2E2E2E2E2E2E2E2E2E2E2E2E2E2E2E2E2E2E2E2E2E2E2E2E2E2E2E2E2E2E2E2E2E2E2E2E2E2E2E2E2E2E2E2E2E2E2E2E2E2E2E2E2E2E2E2E2E2E2E2E2E2E2E2E2E2E2E2E2E2E2E2E2E2E2E2E2E2
310
E2E2E2E2E2E2E2E2E2E2E2E2E2E2E2E2E2E2E2E2E2E2E2E2E2E2E2E2E2E20FE2E2E2E2E2E2E2E2E2E2E2E2E2E2E2E2E2E2E2E2E2E2E2E2E2E2E2E2E2E2E2E2E2E2E2E2E2E2E2E2E2E2E2E2E2E2E2E2E2E2E2E2E2E2E2E2E2E2E2E2E2E2E2E2E2E2E2E2E2E2E2E2E2E2E2E2E2E2E2E2E2E2E2E2E2E2E2E2E2E2E2E2E2E2E2E2
310
E2E2E2E2E2E2E2E2E2E2E2E2E2E2E2E2E2E2E2E2E2E2E2E2E2E2E2E2E2E2E2E2E2E2E2E2E2E2E2E2E2E2E2E2E2E2E2E2E2E2E2E2E2E2E2E2E2E2E2E2E2E2E2E2E2E2E2E2E2E2E2E2E2E2E2E2E2E2E2E2E2E2E20FE2E2E2E2E2E2E2E2E2E2E2E2E2E2E2E2E2E2E2E2E2E2E2E2E2E2E2E2E2E2E2E2E2E2E2E2E2E2E2E2E2E2E2
310
E2E2E2E2E2E2E2E2E2E2E2E2E2E2E2E2E2E2E2E2E2E2E2E2E2E2E2E2E2E2E2E2E2E2E2E2E2E2E2E2E2E2E2E2E2E2E2E2E2E2E2E2E2E2E2E2E2E2E2E2E2E2E2E2E2E2E2E2E2E2E2E2E2E2E2E2E2E2E2E2E2E2E2E2E2E2E2E2E2E2E2E2E2E2E2E2E2E2E2E2E2E2E2E2E2E2E2E2E2E2E2E2E2E2E2E2E2E2E2E2E2E2E2E2E2E2E2
310
E2E2E2E2E2E2E2E2E20FE2E2E2E2E2E2E2E2E2E2E2E2E2E2E2E2E2E2E2E2E2E2E2E2E2E2E2E2E2E2E2E2E2E2E2E2E2E2E2E2E2E2E2E2E2E2E2E2E2E2E2E2E2E2E2E2E2E2E2E2E2E2E2E2E2E2E2E2E2E2E2E2E2E2E2E2E2E2E2E2E2E2E2E2E2E2E2E2E2E2E2E2E2E2E2E2E2E2E2E2E2E2E2E2E2E2E2E2E2E2E2E2E2E2E2E2E2
310
E2E2E2E2E2E2E2E2E2E2E2E2E2E2E2E2E2E2E2E2E2E2E2E2E2E2E2E2E2E2E2E2E2E2E2E2E2E2E2E2E2E2E2E2E2E2E2E2E2E2E2E2E2E2E2E2E2E2E2E2E2E20FE2E2E2E2E2E2E2E2E2E2E2E2E2E2E2E2E2E2E2E2E2E2E2E2E2E2E2E2E2E2E2E2E2E2E2E2E2E2E2E2E2E2E2E2E2E2E2E2E2E2E2E2E2E2E2E2E2E2E2E2E2E2E2E2
310
E2E2E2E2E2E2E2E2E2E2E2E2E2E2E2E2E2E2E2E2E2E2E2E2E2E2E2E2E2E2E2E2E2E2E2E2E2E2E2E2E2E2E2E2E2E2E2E2E2E2E2E2E2E2E2E2E2E2E2E2E2E2E2E2E2E2E2E2E2E2E2E2E2E2E2E2E2E2E2E2E2E2E2E2E2E2E2E2E2E2E2E2E2E2E2E2E2E2E2E2E2E2E2E2E2E2E2E2E2E2E2E2E2E2E20FE2E2E2E2E2E2E2E2E2E2E2
310
E2E2E2E2E2E2E2E2E2E2E2E2E2E2E2E2E2E2E2E2E2E2E2E2E2E2E2E2E2E2E2E2E2E2E2E2E2E2E2E2E2E2E2E2E2E2E2E2E2E2E2E2E2E2E2E2E2E2E2E2E2E2E2E2E2E2E2E2E2E2E2E2E2E2E2E2E2E2E2E2E2E2E2E2E2E2E2E2E2E2E2E2E2E2E2E2E2E2E2E2E2E2E2E2E2E2E2E2E2E2E2E2E2E2E2E2E2E2E2E2E2E2E2E2E2E2E2
310
E2E2E2E2E2E2E2E2E2E2E2E2E2E2E2E2E2E2E2E2E2E2E2E2E2E2E2E2E2E2E2E2E2E2E2E2E2E2E2E2E20FE2E2E2E2E2E2E2E2E2E2E2E2E2E2E2E2E2E2E2E2E2E2E2E2E2E2E2E2E2E2E2E2E2E2E2E2E2E2E2E2E2E2E2E2E2E2E2E2E2E2E2E2E2E2E2E2E2E2E2E2E2E2E2E2E2E2E2E2E2E2E2E2E2E2E2E2E2E2E2E2E2E2E2E2E2
310
E2E2E2E2E2E2E2E2E2E2E2E2E2E2E2E2E2E2E2E2E2E2E2E2E2E2E2E2E2E2E2E2E2E2E2E2E2E2E2E2E2E2E2E2E2E2E2E2E2E2E2E2E2E2E2E2E2E2E2E2E2E2E2E2E2E2E2E2E2E2E2E2E2E2E2E2E2E2E2E2E2E2E2E2E2E2E2E2E2E2E2E2E2E20FE2E2E2E2E2E2E2E2E2E2E2E2E2E2E2E2E2E2E2E2E2E2E2E2E2E2E2E2E2E2E2E2
310
E2E2E2E2E2E2E2E2E2E2E2E2E2E2E2E2E2E2E2E2E2E2E2E2E2E2E2E2E2E2E2E2E2E2E2E2E2E2E2E2E2E2E2E2E2E2E2E2E2E2E2E2E2E2E2E2E2E2E2E2E2E2E2E2E2E2E2E2E2E2E2E2E2E2E2E2E2E2E2E2E2E2E2E2E2E2E2E2E2E2E2E2E2E2E2E2E2E2E2E2E2E2E2E2E2E2E2E2E2E2E2E2E2E2E2E2E2E2E2E2E2E2E2E2E2E2E2
310
E2E2E2E2E2E2E2E2E2E2E2E2E2E2E2E2E2E2E2E20FE2E2E2E2E2E2E2E2E2E2E2E2E2E2E2E2E2E2E2E2E2E2E2E2E2E2E2E2E2E2E2E2E2E2E2E2E2E2E2E2E2E2E2E2E2E2E2E2E2E2E2E2E2E2E2E2E2E2E2E2E2E2E2E2E2E2E2E2E2E2E2E2E2E2E2E2E2E2E2E2E2E2E2E2E2E2E2E2E2E2E2E2E2E2E2E2E2E2E2E2E2E2E2E2E2E2
310
E2E2E2E2E2E2E2E2E2E2E2E2E2E2E2E2E2E2E2E2E2E2E2E2E2E2E2E2E2E2E2E2E2E2E2E2E2E2E2E2E2E2E2E2E2E2E2E2E2E2E2E2E2E2E2E2E2E2E2E2E2E2E2E2E2E2E2E2E2E2E2E2E20FE2E2E2E2E2E2E2E2E2E2E2E2E2E2E2E2E2E2E2E2E2E2E2E2E2E2E2E2E2E2E2E2E2E2E2E2E2E2E2E2E2E2E2E2E2E2E2E2E2E2E2E2E2
310
E2E2E2E2E2E2E2E2E2E2E2E2E2E2E2E2E2E2E2E2E2E2E2E2E2E2E2E2E2E2E2E2E2E2E2E2E2E2E2E2E2E2E2E2E2E2E2E2E2E2E2E2E2E2E2E2E2E2E2E2E2E2E2E2E2E2E2E2E2E2E2E2E2E2E2E2E2E2E2E2E2E2E2E2E2E2E2E2E2E2E2E2E2E2E2E2E2E2E2E2E2E2E2E2E2E2E2E2E2E2E2E2E2E2E2E2E2E2E2E2E2E2E2E2E2E20F
310
E2E2E2E2E2E2E2E2E2E2E2E2E2E2E2E2E2E2E2E2E2E2E2E2E2E2E2E2E2E2E2E2E2E2E2E2E2E2E2E2E2E2E2E2E2E2E2E2E2E2E2E2E2E2E2E2E2E2E2E2E2E2E2E2E2E2E2E2E2E2E2E2E2E2E2E2E2E2E2E2E2E2E2E2E2E2E2E2E2E2E2E2E2E2E2E2E2E2E2E2E2E2E2E2E2E2E2E2E2E2E2E2E2E2E2E2E2E2E2E2E2E2E2E2E2E2E2
310
E2E2E2E2E2E2E2E2E2E2E2E2E2E2E2E2E2E2E2E2E2E2E2E2E2E2E2E2E2E2E2E2E2E2E2E2E2E2E2E2E2E2E2E2E2E2E2E2E2E2E2E20FE2E2E2E2E2E2E2E2E2E2E2E2E2E2E2E2E2E2E2E2E2E2E2E2E2E2E2E2E2E2E2E2E2E2E2E2E2E2E2E2E2E2E2E2E2E2E2E2E2E2E2E2E2E2E2E2E2E2E2E2E2E2E2E2E2E2E2E2E2E2E2E2E2E2
310
E2E2E2E2E2E2E2E2E2E2E2E2E2E2E2E2E2E2E2E2E2E2E2E2E2E2E2E2E2E2E2E2E2E2E2E2E2E2E2E2E2E2E2E2E2E2E2E2E2E2E2E2E2E2E2E2E2E2E2E2E2E2E2E2E2E2E2E2E2E2E2E2E2E2E2E2E2E2E2E2E2E2E2E2E2E2E2E2E2E2E2E2E2E2E2E2E2E2E2E2E2E2E2E2E20FE2E2E2E2E2E2E2E2E2E2E2E2E2E2E2E2E2E2E2E2E2
310
E2E2E2E2E2E2E2E2E2E2E2E2E2E2E2E2E2E2E2E2E2E2E2E2E2E2E2E2E2E2E2E2E2E2E2E2E2E2E2E2E2E2E2E2E2E2E2E2E2E2E2E2E2E2E2E2E2E2E2E2E2E2E2E2E2E2E2E2E2E2E2E2E2E2E2E2E2E2E2E2E2E2E2E2E2E2E2E2E2E2E2E2E2E2E2E2E2E2E2E2E2E2E2E2E2E2E2E2E2E2E2E2E2E2E2E2E2E2E2E2E2E2E2E2E2E2E2
310
E2E2E2E2E2E2E2E2E2E2E2E2E2E2E2E2E2E2E2E2E2E2E2E2E2E2E2E2E2E2E20FE2E2E2E2E2E2E2E2E2E2E2E2E2E2E2E2E2E2E2E2E2E2E2E2E2E2E2E2E2E2E2E2E2E2E2E2E2E2E2E2E2E2E2E2E2E2E2E2E2E2E2E2E2E2E2E2E2E2E2E2E2E2E2E2E2E2E2E2E2E2E2E2E2E2E2E2E2E2E2E2E2E2E2E2E2E2E2E2E2E2E2E2E2E2E2
310
E2E2E2E2E2E2E2E2E2E2E2E2E2E2E2E2E2E2E2E2E2E2E2E2E2E2E2E2E2E2E2E2E2E2E2E2E2E2E2E2E2E2E2E2E2E2E2E2E2E2E2E2E2E2E2E2E2E2E2E2E2E2E2E2E2E2E2E2E2E2E2E2E2E2E2E2E2E2E2E2E2E2E2E20FE2E2E2E2E2E2E2E2E2E2E2E2E2E2E2E2E2E2E2E2E2E2E2E2E2E2E2E2E2E2E2E2E2E2E2E2E2E2E2E2E2E2
310
E2E2E2E2E2E2E2E2E2E2E2E2E2E2E2E2E2E2E2E2E2E2E2E2E2E2E2E2E2E2E2E2E2E2E2E2E2E2E2E2E2E2E2E2E2E2E2E2E2E2E2E2E2E2E2E2E2E2E2E2E2E2E2E2E2E2E2E2E2E2E2E2E2E2E2E2E2E2E2E2E2E2E2E2E2E2E2E2E2E2E2E2E2E2E2E2E2E2E2E2E2E2E2E2E2E2E2E2E2E2E2E2E2E2E2E2E2E2E2E2E2E2E2E2E2E2E2
310
E2E2E2E2E2E2E2E2E2E20FE2E2E2E2E2E2E2E2E2E2E2E2E2E2E2E2E2E2E2E2E2E2E2E2E2E2E2E2E2E2E2E2E2E2E2E2E2E2E2E2E2E2E2E2E2E2E2E2E2E2E2E2E2E2E2E2E2E2E2E2E2E2E2E2E2E2E2E2E2E2E2E2E2E2E2E2E2E2E2E2E2E2E2E2E2E2E2E2E2E2E2E2E2E2E2E2E2E2E2E2E2E2E2E2E2E2E2E2E2E2E2E2E2E2E2E2
310
E2E2E2E2E2E2E2E2E2E2E2E2E2E2E2E2E2E2E2E2E2E2E2E2E2E2E2E2E2E2E2E2E2E2E2E2E2E2E2E2E2E2E2E2E2E2E2E2E2E2E2E2E2E2E2E2E2E2E2E2E2E2E20FE2E2E2E2E2E2E2E2E2E2E2E2E2E2E2E2E2E2E2E2E2E2E2E2E2E2E2E2E2E2E2E2E2E2E2E2E2E2E2E2E2E2E2E2E2E2E2E2E2E2E2E2E2E2E2E2E2E2E2E2E2E2E2
310
E2E2E2E2E2E2E2E2E2E2E2E2E2E2E2E2E2E2E2E2E2E2E2E2E2E2E2E2E2E2E2E2E2E2E2E2E2E2E2E2E2E2E2E2E2E2E2E2E2E2E2E2E2E2E2E2E2E2E2E2E2E2E2E2E2E2E2E2E2E2E2E2E2E2E2E2E2E2E2E2E2E2E2E2E2E2E2E2E2E2E2E2E2E2E2E2E2E2E2E2E2E2E2E2E2E2E2E2E2E2E2E2E2E2E2E20FE2E2E2E2E2E2E2E2E2E2
310
E2E2E2E2E2E2E2E2E2E2E2E2E2E2E2E2E2E2E2E2E2E2E2E2E2E2E2E2E2E2E2E2E2E2E2E2E2E2E2E2E2E2E2E2E2E2E2E2E2E2E2E2E2E2E2E2E2E2E2E2E2E2E2E2E2E2E2E2E2E2E2E2E2E2E2E2E2E2E2E2E2E2E2E2E2E2E2E2E2E2E2E2E2E2E2E2E2E2E2E2E2E2E2E2E2E2E2E2E2E2E2E2E2E2E2E2E2E2E2E2E2E2E2E2E2E2E2
310
E2E2E2E2E2E2E2E2E2E2E2E2E2E2E2E2E2E2E2E2E2E2E2E2E2E2E2E2E2E2E2E2E2E2E2E2E2E2E2E2E2E20FE2E2E2E2E2E2E2E2E2E2E2E2E2E2E2E2E2E2E2E2E2E2E2E2E2E2E2E2E2E2E2E2E2E2E2E2E2E2E2E2E2E2E2E2E2E2E2E2E2E2E2E2E2E2E2E2E2E2E2E2E2E2E2E2E2E2E2E2E2E2E2E2E2E2E2E2E2E2E2E2E2E2E2E2
310
E2E2E2E2E2E2E2E2E2E2E2E2E2E2E2E2E2E2E2E2E2E2E2E2E2E2E2E2E2E2E2E2E2E2E2E2E2E2E2E2E2E2E2E2E2E2E2E2E2E2E2E2E2E2E2E2E2E2E2E2E2E2E2E2E2E2E2E2E2E2E2E2E2E2E2E2E2E2E2E2E2E2E2E2E2E2E2E2E2E2E2E2E2E2E20FE2E2E2E2E2E2E2E2E2E2E2E2E2E2E2E2E2E2E2E2E2E2E2E2E2E2E2E2E2E2E2
310
E2E2E2E2E2E2E2E2E2E2E2E2E2E2E2E2E2E2E2E2E2E2E2E2E2E2E2E2E2E2E2E2E2E2E2E2E2E2E2E2E2E2E2E2E2E2E2E2E2E2E2E2E2E2E2E2E2E2E2E2E2E2E2E2E2E2E2E2E2E2E2E2E2E2E2E2E2E2E2E2E2E2E2E2E2E2E2E2E2E2E2E2E2E2E2E2E2E2E2E2E2E2E2E2E2E2E2E2E2E2E2E2E2E2E2E2E2E2E2E2E2E2E2E2E2E2E2
310
E2E2E2E2E2E2E2E2E2E2E2E2E2E2E2E2E2E2E2E2E20FE2E2E2E2E2E2E2E2E2E2E2E2E2E2E2E2E2E2E2E2E2E2E2E2E2E2E2E2E2E2E2E2E2E2E2E2E2E2E2E2E2E2E2E2E2E2E2E2E2E2E2E2E2E2E2E2E2E2E2E2E2E2E2E2E2E2E2E2E2E2E2E2E2E2E2E2E2E2E2E2E2E2E2E2E2E2E2E2E2E2E2E2E2E2E2E2E2E2E2E2E2E2E2E2E2
310
E2E2E2E2E2E2E2E2E2E2E2E2E2E2E2E2E2E2E2E2E2E2E2E2E2E2E2E2E2E2E2E2E2E2E2E2E2E2E2E2E2E2E2E2E2E2E2E2E2E2E2E2E2E2E2E2E2E2E2E2E2E2E2E2E2E2E2E2E2E2E2E2E2E20FE2E2E2E2E2E2E2E2E2E2E2E2E2E2E2E2E2E2E2E2E2E2E2E2E2E2E2E2E2E2E2E2E2E2E2E2E2E2E2E2E2E2E2E2E2E2E2E2E2E2E2E2
310
E2E2E2E2E2E2E2E2E2E2E2E2E2E2E2E2E2E2E2E2E2E2E2E2E2E2E2E2E2E2E2E2E2E2E2E2E2E2E2E2E2E2E2E2E2E2E2E2E2E2E2E2E2E2E2E2E2E2E2E2E2E2E2E2E2E2E2E2E2E2E2E2E2E2E2E2E2E2E2E2E2E2E2E2E2E2E2E2E2E2E2E2E2E2E2E2E2E2E2E2E2E2E2E2E2E2E2E2E2E2E2E2E2E2E2E2E2E2E2E2E2E2E2E2E2E2E2
310
0FE2E2E2E2E2E2E2E2E2E2E2E2E2E2E2E2E2E2E2E2E2E2E2E2E2E2E2E2E2E2E2E2E2E2E2E2E2E2E2E2E2E2E2E2E2E2E2E2E2E2E2E2E2E2E2E2E2E2E2E2E2E2E2E2E2E2E2E2E2E2E2E2E2E2E2E2E2E2E2E2E2E2E2E2E2E2E2E2E2E2E2E2E2E2E2E2E2E2E2E2E2E2E2E2E2E2E2E2E20F0F0F0F0F0F0F0F0F0F0F0F0F0F0F0F0F
310
0F0F0F0F0F0F0F0F0F0F0F0F0F0F0F0F0F0F0F0F0F0F0F0F0F0F0F0F0F0F0F0F0F0F0F0F0F0F0F0F0F0F0F0F0F0F0F0F0F0F0F0F0F0FE2E2E2E2E2E2E2E2E2E2E2E2E2E2E2E2E2E2E2E2E2E2E2E2E2E2E2E2E2E2E2E2E2E2E2E2E2E2E2E2E2E2E2E2E2E2E2E2E2E2E2E2E2E2E2E2E2E2E2E2E2E2E2E2E2E2E2E2E2E2E2E2E2
310
E2E2E2E2E2E2E2E2E2E2E2E2E2E2E2E2E2E2E2E2E2E2E2E2E2E2E2E2E2E2E2E2E2E2E2E2E2E2E2E2E2E2E2E2E2E2E2E2E2E2E2E2E2E2E2E2E2E2E2E2E2E2E2E2E2E2E2E2E2E2E2E2E2E2E2E2E2E2E2E2E2E2E2E2E2E2E2E2E2E2E2E2E2E2E2E2E2E2E2E2E2E2E2E2E2E2E2E2E2E2E2E2E2E2E2E2E2E2E2E2E2E2E2E2E2E2E2
310
E2E2E2E2E2E2E2E2E2E2E2E2E2E2E2E2E2E2E2E2E2E2E2E2E2E2E2E2E2E2E2E2E2E2E2E2E2E2E2E2E2E2E2E2E2E2E2E2E2E2E2E2E2E2E2E2E2E2E2E2E2E2E2E2E2E2E2E2E2E2E2E2E2E2E2E2E2E2E2E2E2E2E2E2E2E2E2E2E2E2E2E2E2E2E2E2E2E2E2E2E2E2E2E2E2E2E2E2E2E2E2E2E2E2E2E2E2E2E2E2E2E2E2E2E2E2E2
310
E2E2E2E2E2E2E2E2E2E2E2E2E2E2E2E2E2E2E2E2E2E2E2E2E2E2E2E2E2E2E2E2E2E2E2E2E2E2E2E2E2E2E2E2E2E2E2E2E2E2E2E2E2E2E2E2E2E2E2E2E2E2E2E2E2E2E2E2E2E2E2E2E2E2E2E2E2E2E2E2E2E2E2E2E2E2E2E2E2E2E2E2E2E2E2E2E2E2E2E2E2E2E2E2E2E2E2E2E2E2E2E2E2E2E2E2E2E2E2E2E2E2E2E2E2E2E2
310
E2E2E2E2E2E2E2E2E2E2E2E2E2E2E2E2E2E2E2E2E2E2E2E2E2E2E2E2E2E2E2E2E2E2E2E2E2E2E2E2E2E2E2E2E2E2E2E2E2E2E2E2E2E2E2E2E2E2E2E2E2E2E2E2E2E2E2E2E2E2E2E2E2E2E2E2E2E2E2E2E2E2E2E2E2E2E2E2E2E2E2E2E2E2E2E2E2E2E2E2E2E2E2E2E2E2E2E2E2E2E2E2E2E2E2E2E2E2E2E2E2E2E2E2E2E2E2
310
E2E2E2E2E2E2E2E2E2E2E2E2E2E2E2E2E2E2E2E2E2E2E2E2E2E2E2E2E2E2E2E2E2E2E2E2E2E2E2E2E2E2E2E2E2E2E2E2E2E2E2E2E2E2E2E2E2E2E2E2E2E2E2E2E2E2E2E2E2E2E2E2E2E2E2E2E2E2E2E2E2E2E2E2E2E2E2E2E2E2E2E2E2E2E2E2E2E2E2E2E2E2E2E2E2E2E2E2E2E2E2E2E2E2E2E2E2E2E2E2E2E2E2E2E2E2E2
310
E2E2E2E2E2E2E2E2E2E2E2E2E2E2E2E2E2E2E2E2E2E2E2E2E2E2E2E2E2E2E2E2E2E2E2E2E2E2E2E2E2E2E2E2E2E2E2E2E2E2E2E2E2E2E2E2E2E2E2E2E2E2E2E2E2E2E2E2E2E2E2E2E2E2E2E2E2E2E2E2E2E2E2E2E2E2E2E2E2E2E2E2E2E2E2E2E2E2E2E2E2E2E2E2E2E2E2E2E2E2E2E2E2E2E2E2E2E2E2E2E2E2E2E2E2E2E2
310
E2E2E2E2E2E2E2E2E2E2E2E2E2E2E2E2E2E2E2E2E2E2E2E2E2E2E2E2E2E2E2E2E2E2E2E2E2E2E2E2E2E2E2E2E2E2E2E2E2E2E2E2E2E2E2E2E2E2E2E2E2E2E2E2E2E2E2E2E2E2E2E2E2E2E2E2E2E2E2E2E2E2E2E2E2E2E2E2E2E2E2E2E2E2E2E2E2E2E2E2E2E2E2E2E2E2E2E2E2E2E2E2E2E2E2E2E2E2E2E2E2E2E2E2E2E2E2
310
E2E2E2E2E2E2E2E2E2E2E2E2E2E2E2E2E2E2E2E2E2E2E2E2E2E2E2E2E2E2E2E2E2E2E2E2E2E2E2E2E2E2E2E2E2E2E2E2E2E2E2E2E2E2E2E2E2E2E2E2E2E2E2E2E2E2E2E2E2E2E2E2E2E2E2E2E2E2E2E2E2E2E2E2E2E2E2E2E2E2E2E2E2E2E2E2E2E2E2E2E2E2E2E2E2E2E2E2E2E2E2E2E2E2E2E2E2E2E2E2E2E2E2E2E2E2E2
310
E2E2E2E2E2E2E2E2E2E2E2E2E2E2E2E2E2E2E2E2E2E2E2E2E2E2E2E2E2E2E2E2E2E2E2E2E2E2E2E2E2E2E2E2E2E2E2E2E2E2E2E2E2E2E2E2E2E2E2E2E2E2E2E2E2E2E2E2E2E2E2E2E2E2E2E2E2E2E2E2E2E2E2E2E2E2E2E2E2E2E2E2E2E2E2E2E2E2E2E2E2E2E2E2E2E2E2E2E2E2E2E2E2E2E2E2E2E2E2E2E2E2E2E2E2E2E2
310
E2E2E2E2E2E2E2E2E2E2E2E2E2E2E2E2E2E2E2E2E2E2E2E2E2E2E2E2E2E2E2E2E2E2E2E2E2E2E2E2E2E2E2E2E2E2E2E2E2E2E2E2E2E2E2E2E2E2E2E2E2E2E2E2E2E2E2E2E2E2E2E2E2E2E2E2E2E2E2E2E2E2E2E2E2E2E2E2E2E2E2E2E2E2E2E2E2E2E2E2E2E2E2E2E2E2E2E2E2E2E2E2E2E2E2E2E2E2E2E2E2E2E2E2E2E2E2
310
E2E2E2E2E2E2E2E2E2E2E2E2E2E2E2E2E2E2E2E2E2E2E2E2E2E2E2E2E2E2E2E2E2E2E2E2E2E2E2E2E2E2E2E2E2E2E2E2E2E2E2E2E2E2E2E2E2E2E2E2E2E2E2E2E2E2E2E2E2E2E2E2E2E2E2E2E2E2E2E2E2E2E2E2E2E2E2E2E2E2E2E2E2E2E2E2E2E2E2E2E2E2E2E2E2E2E2E2E2E2E2E2E2E2E2E2E2E2E2E2E2E2E2E2E2E2E2
310
E2E2E2E2E2E2E2E2E2E2E2E2E2E2E2E2E2E2E2E2E2E2E2E2E2E2E2E2E2E2E2E2E2E2E2E2E2E2E2E2E2E2E2E2E2E2E2E2E2E2E2E2E2E2E2E2E2E2E2E2E2E2E2E2E2E2E2E2E2E2E2E2E2E2E2E2E2E2E2E2E2E2E2E2E2E2E2E2E2E2E2E2E2E2E2E2E2E2E2E2E2E2E2E2E2E2E2E2E2E2E2E2E2E2E2E2E2E2E2E2E2E2E2E2E2E2E2
310
E2E2E2E2E2E2E2E2E2E2E2E2E2E2E2E2E2E2E2E2E2E2E2E2E2E2E2E2E2E2E2E2E2E2E2E2E2E2E2E2E2E2E2E2E2E2E2E2E2E2E2E2E2E2E2E2E2E2E2E2E2E2E2E2E2E2E2E2E2E2E2E2E2E2E2E2E2E2E2E2E2E2E2E2E2E2E2E2E2E2E2E2E2E2E2E2E2E2E2E2E2E2E2E2E2E2E2E2E2E2E2E2E2E2E2E2E2E2E2E2E2E2E2E2E2E2E2
310
E2E2E2E2E2E2E2E2E2E2E2E2E2E2E2E2E2E2E2E2E2E2E2E2E2E2E2E2E2E2E2E2E2E2E2E2E2E2E2E2E2E2E2E2E2E2E2E2E2E2E2E2E2E2E2E2E2E2E2E2E2E2E2E2E2E2E2E2E2E2E2E2E2E2E2E2E2E2E2E2E2E2E2E2E2E2E2E2E2E2E2E2E2E2E2E2E2E2E2E2E2E2E2E2E2E2E2E2E2E2E2E2E2E2E2E2E2E2E2E2E2E2E2E2E2E2E2
310
E2E2E2E2E2E2E2E2E2E2E2E2E2E2E2E2E2E2E2E2E2E2E2E2E2E2E2E2E2E2E2E2E2E2E2E2E2E2E2E2E2E2E2E2E2E2E2E2E2E2E2E2E2E2E2E2E2E2E2E2E2E2E2E2E2E2E2E2E2E2E2E2E2E2E2E2E2E2E2E2E2E2E2E2E2E2E2E2E2E2E2E2E2E2E2E2E2E2E2E2E2E2E2E2E2E2E2E2E2E2E2E2E2E2E2E2E2E2E2E2E2E2E2E2E2E2E2
310
E2E2E2E2E2E2E2E2E2E2E2E2E2E2E2E2E2E2E2E2E2E2E2E2E2E2E2E2E2E2E2E2E2E2E2E2E2E2E2E2E2E2E2E2E2E2E2E2E2E2E2E2E2E2E2E2E2E2E2E2E2E2E2E2E2E2E2E2E2E2E2E2E2E2E2E2E2E2E2E2E2E2E2E2E2E2E2E2E2E2E2E2E2E2E2E2E2E2E2E2E2E2E2E2E2E2E2E2E2E2E2E2E2E2E2E2E2E2E2E2E2E2E2E2E2E2E2
310
E2E2E2E2E2E2E2E2E2E2E2E2E2E2E2E2E2E2E2E2E2E2E2E2E2E2E2E2E2E2E2E2E2E2E2E2E2E2E2E2E2E2E2E2E2E2E2E2E2E2E2E2E2E2E2E2E2E2E2E2E2E2E2E2E2E2E2E2E2E2E2E2E2E2E2E2E2E2E2E2E2E2E2E2E2E2E2E2E2E2E2E2E2E2E2E2E2E2E2E2E2E2E2E2E2E2E2E2E2E2E2E2E2E2E2E2E2E2E2E2E2E2E2E2E2E2E2
310
E2E2E2E2E2E2E2E2E2E2E2E2E2E2E2E2E2E2E2E2E2E2E2E2E2E2E2E2E2E2E2E2E2E2E2E2E2E2E2E2E2E2E2E2E2E2E2E2E2E2E2E2E2E2E2E2E2E2E2E2E2E2E2E2E2E2E2E2E2E2E2E2E2E2E2E2E2E2E2E2E2E2E2E2E2E2E2E2E2E2E2E2E2E2E2E2E2E2E2E2E2E2E2E2E2E2E2E2E2E2E2E2E2E2E2E2E2E2E2E2E2E2E2E2E2E2E2
310
E2E2E2E2E2E2E2E2E2E2E2E2E2E2E2E2E2E2E2E2E2E2E2E2E2E2E2E2E2E2E2E2E2E2E2E2E2E2E2E2E2E2E2E2E2E2E2E2E2E2E2E2E2E2E2E2E2E2E2E2E2E2E2E2E2E2E2E2E2E2E2E2E2E2E2E2E2E2E2E2E2E2E2E2E2E2E2E2E2E2E2E2E2E2E2E2E2E2E2E2E2E2E2E2E2E2E2E2E2E2E2E2E2E2E2E2E2E2E2E2E2E2E2E2E2E2E2
310
E2E2E2E2E2E2E2E2E2E2E2E2E2E2E2E2E2E2E2E2E2E2E2E2E2E2E2E2E2E2E2E2E2E2E2E2E2E2E2E2E2E2E2E2E2E2E2E2E2E2E2E2E2E2E2E2E2E2E2E2E2E2E2E2E2E2E2E2E2E2E2E2E2E2E2E2E2E2E2E2E2E2E2E2E2E2E2E2E2E2E2E2E2E2E2E2E2E2E2E2E2E2E2E2E2E2E2E2E2E2E2E2E2E2E2E2E2E2E2E2E2E2E2E2E2E2E2
310
E2E2E2E2E2E2E2E2E2E2E2E2E2E2E2E2E2E2E2E2E2E2E2E2E2E2E2E2E2E2E2E2E2E2E2E2E2E2E2E2E2E2E2E2E2E2E2E2E2E2E2E2E2E2E2E2E2E2E2E2E2E2E2E2E2E2E2E2E2E2E2E2E2E2E2E2E2E2E2E2E2E2E2E2E2E2E2E2E2E2E2E2E2E2E2E2E2E2E2E2E2E2E2E2E2E2E2E2E2E2E2E2E2E2E2E2E2E2E2E2E2E2E2E2E2E2E2
310
E2E2E2E2E2E2E2E2E2E2E2E2E2E2E2E2E2E2E2E2E2E2E2E2E2E2E2E2E2E2E2E2E2E2E2E2E2E2E2E2E2E2E2E2E2E2E2E2E2E2E2E2E2E2E2E2E2E2E2E2E2E2E2E2E2E2E2E2E2E2E2E2E2E2E2E2E2E2E2E2E2E2E2E2E2E2E2E2E2E2E2E2E2E2E2E2E2E2E2E2E2E2E2E2E2E2E2E2E2E2E2E2E2E2E2E2E2E2E2E2E2E2E2E2E2E2E2
310
E2E2E2E2E2E2E2E2E2E2E2E2E2E2E2E2E2E2E2E2E2E2E2E2E2E2E2E2E2E2E2E2E2E2E2E2E2E2E2E2E2E2E2E2E2E2E2E2E2E2E2E2E2E2E2E2E2E2E2E2E2E2E2E2E2E2E2E2E2E2E2E2E2E2E2E2E2E2E2E2E2E2E2E2E2E2E2E2E2E2E2E2E2E2E2E2E2E2E2E2E2E2E2E2E2E2E2E2E2E2E2E2E2E2E2E2E2E2E2E2E2E2E2E2E2E2E2
310
E2E2E2E2E2E2E2E2E2E2E2E2E2E2E2E2E2E2E2E2E2E2E2E2E2E2E2E2E2E2E2E2E2E2E2E2E2E2E2E2E2E2E2E2E2E2E2E2E2E2E2E2E2E2E2E2E2E2E2E2E2E2E2E2E2E2E2E2E2E2E2E2E2E2E2E2E2E2E2E2E2E2E2E2E2E2E2E2E2E2E2E2E2E2E2E2E2E2E2E2E2E2E2E2E2E2E2E2E2E2E2E2E2E2E2E2E2E2E2E2E2E2E2E2E2E2E2
310
E2E2E2E2E2E2E2E2E2E2E2E2E2E2E2E2E2E2E2E2E2E2E2E2E2E2E2E2E2E2E2E2E2E2E2E2E2E2E2E2E2E2E2E2E2E2E2E2E2E2E2E2E2E2E2E2E2E2E2E2E2E2E2E2E2E2E2E2E2E2E2E2E2E2E2E2E2E2E2E2E2E2E2E2E2E2E2E2E2E2E2E2E2E2E2E2E2E2E2E2E2E2E2E2E2E2E2E2E2E2E2E2E2E2E2E2E2E2E2E2E2E2E2E2E2E2E2
310
E2E2E2E2E2E2E2E2E2E2E2E2E2E2E2E2E2E2E2E2E2E2E2E2E2E2E2E2E2E2E2E2E2E2E2E2E2E2E2E2E2E2E2E2E2E2E2E2E2E2E2E2E2E2E2E2E2E2E2E2E2E2E2E2E2E2E2E2E2E2E2E2E2E2E2E2E2E2E2E2E2E2E2E2E2E2E2E2E2E2E2E2E2E2E2E2E2E2E2E2E2E2E2E2E2E2E2E2E2E2E2E2E2E2E2E2E2E2E2E2E2E2E2E2E2E2E2
310
E2E2E2E2E2E2E2E2E2E2E2E2E2E2E2E2E2E2E2E2E2E2E2E2E2E2E2E2E2E2E2E2E2E2E2E2E2E2E2E2E2E2E2E2E2E2E2E2E2E2E2E2E2E2E2E2E2E2E2E2E2E2E2E2E2E2E2E2E2E2E2E2E2E2E2E2E2E2E2E2E2E2E2E2E2E2E2E2E2E2E2E2E2E2E2E2E2E2E2E2E2E2E2E2E2E2E2E2E2E2E2E2E2E2E2E2E2E2E2E2E2E2E2E2E2E2E2
310
E2E2E2E2E2E2E2E2E2E2E2E2E2E2E2E2E2E2E2E2E2E2E2E2E2E2E2E2E2E2E2E2E2E2E2E2E2E2E2E2E2E2E2E2E2E2E2E2E2E2E2E2E2E2E2E2E2E2E2E2E2E2E2E2E2E2E2E2E2E2E2E2E2E2E2E2E2E2E2E2E2E2E2E2E2E2E2E2E2E2E2E2E2E2E2E2E2E2E2E2E2E2E2E2E2E2E2E2E2E2E2E2E2E2E2E2E2E2E2E2E2E2E2E2E2E2E2
310
E2E2E2E2E2E2E2E2E2E2E2E2E2E2E2E2E2E2E2E2E2E2E2E2E2E2E2E2E2E2E2E2E2E2E2E2E2E2E2E2E2E2E2E2E2E2E2E2E2E2E2E2E2E2E2E2E2E2E2E2E2E2E2E2E2E2E2E2E2E2E2E2E2E2E2E2E2E2E2E2E2E2E2E2E2E2E2E2E2E2E2E2E2E2E2E2E2E2E2E2E2E2E2E2E2E2E2E2E2E2E2E2E2E2E2E2E2E2E2E2E2E2E2E2E2E2E2
310
E2E2E2E2E2E2E2E2E2E2E2E2E2E2E2E2E2E2E2E2E2E2E2E2E2E2E2E2E2E2E2E2E2E2E2E2E2E2E2E2E2E2E2E2E2E2E2E2E2E2E2E2E2E2E2E2E2E2E2E2E2E2E2E2E2E2E2E2E2E2E2E2E2E2E2E2E2E2E2E2E2E2E2E2E2E2E2E2E2E2E2E2E2E2E2E2E2E2E2E2E2E2E2E2E2E2E2E2E2E2E2E2E2E2E2E2E2E2E2E2E2E2E2E2E2E2E2
310
E2E2E2E2E2E2E2E2E2E2E2E2E2E2E2E2E2E2E2E2E2E2E2E2E2E2E2E2E2E2E2E2E2E2E2E2E2E2E2E2E2E2E2E2E2E2E2E2E2E2E2E2E2E2E2E2E2E2E2E2E2E2E2E2E2E2E2E2E2E2E2E2E2E2E2E2E2E2E2E2E2E2E2E2E2E2E2E2E2E2E2E2E2E2E2E2E2E2E2E2E2E2E2E2E2E2E2E2E2E2E2E2E2E2E2E2E2E2E2E2E2E2E2E2E2E2E2
310
E2E2E2E2E2E2E2E2E2E2E2E2E2E2E2E2E2E2E2E2E2E2E2E2E2E2E2E2E2E2E2E2E2E2E2E2E2E2E2E2E2E2E2E2E2E2E2E2E2E2E2E2E2E2E2E2E2E2E2E2E2E2E2E2E2E2E2E2E2E2E2E2E2E2E2E2E2E2E2E2E2E2E2E2E2E2E2E2E2E2E2E2E2E2E2E2E2E2E2E2E2E2E2E2E2E2E2E2E2E2E2E2E2E2E2E2E2E2E2E2E2E2E2E2E2E2E2
310
E2E2E2E2E2E2E2E2E2E2E2E2E2E2E2E2E2E2E2E2E2E2E2E2E2E2E2E2E2E2E2E2E2E2E2E2E2E2E2E2E2E2E2E2E2E2E2E2E2E2E2E2E2E2E2E2E2E2E2E2E2E2E2E2E2E2E2E2E2E2E2E2E2E2E2E2E2E2E2E2E2E2E2E2E2E2E2E2E2E2E2E2E2E2E2E2E2E2E2E2E2E2E2E2E2E2E2E2E2E2E2E2E2E2E2E2E2E2E2E2E2E2E2E2E2E2E2
310
E2E2E2E2E2E2E2E2E2E2E2E2E2E2E2E2E2E2E2E2E2E2E2E2E2E2E2E2E2E2E2E2E2E2E2E2E2E2E2E2E2E2E2E2E2E2E2E2E2E2E2E2E2E2E2E2E2E2E2E2E2E2E2E2E2E2E2E2E2E2E2E2E2E2E2E2E2E2E2E2E2E2E2E2E2E2E2E2E2E2E2E2E2E2E2E2E2E2E2E2E2E2E2E2E2E2E2E2E2E2E2E2E2E2E2E2E2E2E2E2E2E2E2E2E2E2E2
310
E2E2E2E2E2E2E2E2E2E2E2E2E2E2E2E2E2E2E2E2E2E2E2E2E2E2E2E2E2E2E2E2E2E2E2E2E2E2E2E2E2E2E2E2E2E2E2E2E2E2E2E2E2E2E2E2E2E2E2E2E2E2E2E2E2E2E2E2E2E2E2E2E2E2E2E2E2E2E2E2E2E2E2E2E2E2E2E2E2E2E2E2E2E2E2E2E2E2E2E2E2E2E2E2E2E2E2E2E2E2E2E2E2E2E2E2E2E2E2E2E2E2E2E2E2E2E2
310
E2E2E2E2E2E2E2E2E2E2E2E2E2E2E2E2E2E2E2E2E2E2E2E2E2E2E2E2E2E2E2E2E2E2E2E2E2E2E2E2E2E2E2E2E2E2E2E2E2E2E2E2E2E2E2E2E2E2E2E2E2E2E2E2E2E2E2E2E2E2E2E2E2E2E2E2E2E2E2E2E2E2E2E2E2E2E2E2E2E2E2
  0
XRECORD
  5
43D8
102
{ACAD_REACTORS
330
43D7
102
}
330
43D7
100
AcDbXrecord
280
     1
102
MATERIAL
148
0.0
149
0.0
149
0.0
 93
        0
 94
       63
282
     0
 72
     1
 77
     1
171
     1
175
     1
179
     1
273
     0
  0
ENDSEC
  0
EOF
